  0
SECTION
  2
HEADER
  9
$ACADVER
  1
AC1015
  9
$ACADMAINTVER
 70
     6
  9
$DWGCODEPAGE
  3
ANSI_1252
  9
$INSBASE
 10
0.0
 20
0.0
 30
0.0
  9
$EXTMIN
 10
0.0
 20
0.0
 30
0.0
  9
$EXTMAX
 10
2100.0
 20
2970.0
 30
0.0
  9
$LIMMIN
 10
0.0
 20
0.0
  9
$LIMMAX
 10
2100.0
 20
2970.0
  9
$ORTHOMODE
 70
     0
  9
$REGENMODE
 70
     1
  9
$FILLMODE
 70
     1
  9
$QTEXTMODE
 70
     0
  9
$MIRRTEXT
 70
     1
  9
$LTSCALE
 40
10.0
  9
$ATTMODE
 70
     1
  9
$TEXTSIZE
 40
2.5
  9
$TRACEWID
 40
1.0
  9
$TEXTSTYLE
  7
Standard
  9
$CLAYER
  8
0
  9
$CELTYPE
  6
ByLayer
  9
$CECOLOR
 62
     7
  9
$CELTSCALE
 40
1.0
  9
$DISPSILH
 70
     0
  9
$DIMSCALE
 40
10.0
  9
$DIMASZ
 40
3.5
  9
$DIMEXO
 40
0.625
  9
$DIMDLI
 40
3.75
  9
$DIMRND
 40
0.0
  9
$DIMDLE
 40
0.0
  9
$DIMEXE
 40
1.25
  9
$DIMTP
 40
0.0
  9
$DIMTM
 40
0.0
  9
$DIMTXT
 40
3.5
  9
$DIMCEN
 40
2.5
  9
$DIMTSZ
 40
0.0
  9
$DIMTOL
 70
     0
  9
$DIMLIM
 70
     0
  9
$DIMTIH
 70
     0
  9
$DIMTOH
 70
     0
  9
$DIMSE1
 70
     0
  9
$DIMSE2
 70
     0
  9
$DIMTAD
 70
     1
  9
$DIMZIN
 70
     8
  9
$DIMBLK
  1

  9
$DIMASO
 70
     1
  9
$DIMSHO
 70
     1
  9
$DIMPOST
  1

  9
$DIMAPOST
  1

  9
$DIMALT
 70
     0
  9
$DIMALTD
 70
     3
  9
$DIMALTF
 40
0.03937
  9
$DIMLFAC
 40
1.0
  9
$DIMTOFL
 70
     1
  9
$DIMTVP
 40
0.0
  9
$DIMTIX
 70
     0
  9
$DIMSOXD
 70
     0
  9
$DIMSAH
 70
     0
  9
$DIMBLK1
  1

  9
$DIMBLK2
  1

  9
$DIMSTYLE
  2
ISO-25
  9
$DIMCLRD
 70
     0
  9
$DIMCLRE
 70
     0
  9
$DIMCLRT
 70
     0
  9
$DIMTFAC
 40
1.0
  9
$DIMGAP
 40
0.625
  9
$DIMJUST
 70
     0
  9
$DIMSD1
 70
     0
  9
$DIMSD2
 70
     0
  9
$DIMTOLJ
 70
     0
  9
$DIMTZIN
 70
     8
  9
$DIMALTZ
 70
     0
  9
$DIMALTTZ
 70
     0
  9
$DIMUPT
 70
     0
  9
$DIMDEC
 70
     2
  9
$DIMTDEC
 70
     2
  9
$DIMALTU
 70
     2
  9
$DIMALTTD
 70
     3
  9
$DIMTXSTY
  7
Standard
  9
$DIMAUNIT
 70
     0
  9
$DIMADEC
 70
     0
  9
$DIMALTRND
 40
0.0
  9
$DIMAZIN
 70
     0
  9
$DIMDSEP
 70
    44
  9
$DIMATFIT
 70
     3
  9
$DIMFRAC
 70
     0
  9
$DIMLDRBLK
  1

  9
$DIMLUNIT
 70
     2
  9
$DIMLWD
 70
    -2
  9
$DIMLWE
 70
    -2
  9
$DIMTMOVE
 70
     0
  9
$LUNITS
 70
     2
  9
$LUPREC
 70
     4
  9
$SKETCHINC
 40
1.0
  9
$FILLETRAD
 40
10.0
  9
$AUNITS
 70
     0
  9
$AUPREC
 70
     0
  9
$MENU
  1
.
  9
$ELEVATION
 40
0.0
  9
$PELEVATION
 40
0.0
  9
$THICKNESS
 40
0.0
  9
$LIMCHECK
 70
     0
  9
$CHAMFERA
 40
10.0
  9
$CHAMFERB
 40
10.0
  9
$CHAMFERC
 40
20.0
  9
$CHAMFERD
 40
0.0
  9
$SKPOLY
 70
     0
  9
$TDCREATE
 40
2455029.407268438
  9
$TDUCREATE
 40
2455029.323935104
  9
$TDUPDATE
 40
2455029.407268449
  9
$TDUUPDATE
 40
2455029.323935116
  9
$TDINDWG
 40
0.0000000116
  9
$TDUSRTIMER
 40
0.0000000116
  9
$USRTIMER
 70
     1
  9
$ANGBASE
 50
0.0
  9
$ANGDIR
 70
     0
  9
$PDMODE
 70
     0
  9
$PDSIZE
 40
0.0
  9
$PLINEWID
 40
0.0
  9
$SPLFRAME
 70
     0
  9
$SPLINETYPE
 70
     6
  9
$SPLINESEGS
 70
     8
  9
$HANDSEED
  5
5B5
  9
$SURFTAB1
 70
     6
  9
$SURFTAB2
 70
     6
  9
$SURFTYPE
 70
     6
  9
$SURFU
 70
     6
  9
$SURFV
 70
     6
  9
$UCSBASE
  2

  9
$UCSNAME
  2

  9
$UCSORG
 10
0.0
 20
0.0
 30
0.0
  9
$UCSXDIR
 10
1.0
 20
0.0
 30
0.0
  9
$UCSYDIR
 10
0.0
 20
1.0
 30
0.0
  9
$UCSORTHOREF
  2

  9
$UCSORTHOVIEW
 70
     0
  9
$UCSORGTOP
 10
0.0
 20
0.0
 30
0.0
  9
$UCSORGBOTTOM
 10
0.0
 20
0.0
 30
0.0
  9
$UCSORGLEFT
 10
0.0
 20
0.0
 30
0.0
  9
$UCSORGRIGHT
 10
0.0
 20
0.0
 30
0.0
  9
$UCSORGFRONT
 10
0.0
 20
0.0
 30
0.0
  9
$UCSORGBACK
 10
0.0
 20
0.0
 30
0.0
  9
$PUCSBASE
  2

  9
$PUCSNAME
  2

  9
$PUCSORG
 10
0.0
 20
0.0
 30
0.0
  9
$PUCSXDIR
 10
1.0
 20
0.0
 30
0.0
  9
$PUCSYDIR
 10
0.0
 20
1.0
 30
0.0
  9
$PUCSORTHOREF
  2

  9
$PUCSORTHOVIEW
 70
     0
  9
$PUCSORGTOP
 10
0.0
 20
0.0
 30
0.0
  9
$PUCSORGBOTTOM
 10
0.0
 20
0.0
 30
0.0
  9
$PUCSORGLEFT
 10
0.0
 20
0.0
 30
0.0
  9
$PUCSORGRIGHT
 10
0.0
 20
0.0
 30
0.0
  9
$PUCSORGFRONT
 10
0.0
 20
0.0
 30
0.0
  9
$PUCSORGBACK
 10
0.0
 20
0.0
 30
0.0
  9
$USERI1
 70
     0
  9
$USERI2
 70
     0
  9
$USERI3
 70
     0
  9
$USERI4
 70
     0
  9
$USERI5
 70
     0
  9
$USERR1
 40
0.0
  9
$USERR2
 40
0.0
  9
$USERR3
 40
0.0
  9
$USERR4
 40
0.0
  9
$USERR5
 40
0.0
  9
$WORLDVIEW
 70
     1
  9
$SHADEDGE
 70
     3
  9
$SHADEDIF
 70
    70
  9
$TILEMODE
 70
     1
  9
$MAXACTVP
 70
    64
  9
$PINSBASE
 10
0.0
 20
0.0
 30
0.0
  9
$PLIMCHECK
 70
     0
  9
$PEXTMIN
 10
0.0
 20
0.0
 30
0.0
  9
$PEXTMAX
 10
2100.0
 20
2970.0
 30
0.0
  9
$PLIMMIN
 10
0.0
 20
0.0
  9
$PLIMMAX
 10
2100.0
 20
2970.0
  9
$UNITMODE
 70
     0
  9
$VISRETAIN
 70
     1
  9
$PLINEGEN
 70
     0
  9
$PSLTSCALE
 70
     1
  9
$TREEDEPTH
 70
  3020
  9
$CMLSTYLE
  2
Standard
  9
$CMLJUST
 70
     0
  9
$CMLSCALE
 40
20.0
  9
$PROXYGRAPHICS
 70
     1
  9
$MEASUREMENT
 70
     1
  9
$CELWEIGHT
370
    -1
  9
$ENDCAPS
280
     0
  9
$JOINSTYLE
280
     0
  9
$LWDISPLAY
290
     0
  9
$INSUNITS
 70
     4
  9
$HYPERLINKBASE
  1

  9
$STYLESHEET
  1

  9
$XEDIT
290
     1
  9
$CEPSNTYPE
380
     0
  9
$PSTYLEMODE
290
     1
  9
$FINGERPRINTGUID
  2
{FAEB1C30-E019-11D5-929B-00C0DF256EC4}
  9
$VERSIONGUID
  2
{FAEB1C32-E019-11D5-929B-00C0DF256EC4}
  9
$EXTNAMES
290
     1
  9
$PSVPSCALE
 40
0.0
  9
$OLESTARTUP
290
     0
  0
ENDSEC
  0
SECTION
  2
CLASSES
  0
CLASS
  1
ACDBDICTIONARYWDFLT
  2
AcDbDictionaryWithDefault
  3
ObjectDBX Classes
 90
        0
280
     0
281
     0
  0
CLASS
  1
ACDBPLACEHOLDER
  2
AcDbPlaceHolder
  3
ObjectDBX Classes
 90
        0
280
     0
281
     0
  0
CLASS
  1
LAYOUT
  2
AcDbLayout
  3
ObjectDBX Classes
 90
        0
280
     0
281
     0
  0
ENDSEC
  0
SECTION
  2
TABLES
  0
TABLE
  2
VPORT
  5
8
330
0
100
AcDbSymbolTable
 70
     2
  0
VPORT
  5
29
330
8
100
AcDbSymbolTableRecord
100
AcDbViewportTableRecord
  2
*ACTIVE
 70
     0
 10
0.0
 20
0.0
 11
1.0
 21
1.0
 12
1050.0
 22
1485.0
 13
0.0
 23
0.0
 14
1.0
 24
1.0
 15
0.0
 25
0.0
 16
0.0
 26
0.0
 36
1.0
 17
0.0
 27
0.0
 37
0.0
 40
2970.0
 41
0.707071
 42
50.0
 43
0.0
 44
0.0
 50
0.0
 51
0.0
 71
    16
 72
   100
 73
     1
 74
     0
 75
     0
 76
     0
 77
     0
 78
     0
281
     0
 65
     0
110
0.0
120
0.0
130
0.0
111
1.0
121
0.0
131
0.0
112
0.0
122
1.0
132
0.0
 79
     0
146
0.0
  0
ENDTAB
  0
TABLE
  2
LTYPE
  5
5
330
0
100
AcDbSymbolTable
 70
     3
  0
LTYPE
  5
14
330
5
100
AcDbSymbolTableRecord
100
AcDbLinetypeTableRecord
  2
ByBlock
 70
     0
  3

 72
    65
 73
     0
 40
0.0
  0
LTYPE
  5
15
330
5
100
AcDbSymbolTableRecord
100
AcDbLinetypeTableRecord
  2
ByLayer
 70
     0
  3

 72
    65
 73
     0
 40
0.0
  0
LTYPE
  5
16
330
5
100
AcDbSymbolTableRecord
100
AcDbLinetypeTableRecord
  2
Continuous
 70
     0
  3
Solid line
 72
    65
 73
     0
 40
0.0
  0
LTYPE
  5
2A
330
5
100
AcDbSymbolTableRecord
100
AcDbLinetypeTableRecord
  2
DASHED
 70
     0
  3
__ __ __ __ __
 72
    65
 73
     2
 40
6.25
 49
5.0
 74
     4
 75
     0
340
0
 46
1.0
 50
0.0
 44
0.0
 45
0.0
 49
-1.25
 74
     4
 75
     0
340
0
 46
1.0
 50
0.0
 44
0.0
 45
0.0
  0
LTYPE
  5
13C
330
5
100
AcDbSymbolTableRecord
100
AcDbLinetypeTableRecord
  2
CENTER
 70
     0
  3
__ . __ . __ . __ . __
 72
    65
 73
     4
 40
7.5
 49
5.0
 74
     4
 75
     0
340
0
 46
1.0
 50
0.0
 44
0.0
 45
0.0
 49
-1.25
 74
     4
 75
     0
340
0
 46
1.0
 50
0.0
 44
0.0
 45
0.0
 49
0.0
 74
     4
 75
     0
340
0
 46
1.0
 50
0.0
 44
0.0
 45
0.0
 49
-1.25
 74
     4
 75
     0
340
0
 46
1.0
 50
0.0
 44
0.0
 45
0.0
  0
ENDTAB
  0
TABLE
  2
LAYER
  5
2
330
0
100
AcDbSymbolTable
 70
    15
  0
LAYER
  5
10
330
2
100
AcDbSymbolTableRecord
100
AcDbLayerTableRecord
  2
0
 70
     0
 62
     7
  6
Continuous
370
    -3
390
F
  0
LAYER
  5
2B
330
2
100
AcDbSymbolTableRecord
100
AcDbLayerTableRecord
  2
LC-INFO-1-10-mm-A4H-0
 70
     1
 62
     7
  6
ByBlock
370
    -3
390
F
  0
LAYER
  5
2C
330
2
100
AcDbSymbolTableRecord
100
AcDbLayerTableRecord
  2
LC-CUT-HIDDEN
 70
     0
 62
     7
  6
DASHED
370
    -3
390
F
  0
LAYER
  5
2D
330
2
100
AcDbSymbolTableRecord
100
AcDbLayerTableRecord
  2
LC-VIEWPORT
 70
     0
 62
     7
  6
ByBlock
370
    -3
390
F
  0
LAYER
  5
2E
330
2
100
AcDbSymbolTableRecord
100
AcDbLayerTableRecord
  2
LC-3D-HIDDEN
 70
     0
 62
     9
  6
DASHED
370
    -3
390
F
  0
LAYER
  5
33
330
2
100
AcDbSymbolTableRecord
100
AcDbLayerTableRecord
  2
LC-001-111-----0
 70
     0
 62
   253
  6
ByBlock
370
    -3
390
F
  0
LAYER
  5
A1
330
2
100
AcDbSymbolTableRecord
100
AcDbLayerTableRecord
  2
LC-002-002-----0
 70
     0
 62
     1
  6
ByBlock
370
    -3
390
F
  0
LAYER
  5
102
330
2
100
AcDbSymbolTableRecord
100
AcDbLayerTableRecord
  2
LC-003-230-ZVN-0
 70
     0
 62
     1
  6
ByBlock
370
    -3
390
F
  0
LAYER
  5
104
330
2
100
AcDbSymbolTableRecord
100
AcDbLayerTableRecord
  2
LC-004-002-RND-0
 70
     0
 62
     1
  6
ByBlock
370
    -3
390
F
  0
LAYER
  5
13D
330
2
100
AcDbSymbolTableRecord
100
AcDbLayerTableRecord
  2
LC-005-006-MLN-0
 70
     0
 62
     2
  6
CENTER
370
    -3
390
F
  0
LAYER
  5
204
330
2
100
AcDbSymbolTableRecord
100
AcDbLayerTableRecord
  2
LC-006-005-----0
 70
     0
 62
     2
  6
ByBlock
370
    -3
390
F
  0
LAYER
  5
47A
330
2
100
AcDbSymbolTableRecord
100
AcDbLayerTableRecord
  2
LC-007-004-----0
 70
     0
 62
     7
  6
ByBlock
370
    -3
390
F
  0
LAYER
  5
481
330
2
100
AcDbSymbolTableRecord
100
AcDbLayerTableRecord
  2
LC-008-003-MTH-0
 70
     0
 62
     2
  6
ByBlock
370
    -3
390
F
  0
LAYER
  5
484
330
2
100
AcDbSymbolTableRecord
100
AcDbLayerTableRecord
  2
LC-009-003-MTG-0
 70
     0
 62
     2
  6
ByBlock
370
    -3
390
F
  0
LAYER
  5
486
330
2
100
AcDbSymbolTableRecord
100
AcDbLayerTableRecord
  2
LC-010-003-----0
 70
     0
 62
     2
  6
ByBlock
370
    -3
390
F
  0
ENDTAB
  0
TABLE
  2
STYLE
  5
3
330
0
100
AcDbSymbolTable
 70
     2
  0
STYLE
  5
11
330
3
100
AcDbSymbolTableRecord
100
AcDbTextStyleTableRecord
  2
Standard
 70
     0
 40
0.0
 41
1.0
 50
0.0
 71
     0
 42
2.5
  3
txt
  4

  0
STYLE
  5
2F
330
3
100
AcDbSymbolTableRecord
100
AcDbTextStyleTableRecord
  2
LCTX0-400-0-0pDIN-Schrift
 70
     0
 40
0.0
 41
0.8
 50
0.0
 71
     0
 42
3.5
  3
TXT
  4

  0
ENDTAB
  0
TABLE
  2
VIEW
  5
6
330
0
100
AcDbSymbolTable
 70
     0
  0
ENDTAB
  0
TABLE
  2
UCS
  5
7
330
0
100
AcDbSymbolTable
 70
     0
  0
ENDTAB
  0
TABLE
  2
APPID
  5
9
330
0
100
AcDbSymbolTable
 70
     1
  0
APPID
  5
12
330
9
100
AcDbSymbolTableRecord
100
AcDbRegAppTableRecord
  2
ACAD
 70
     0
  0
ENDTAB
  0
TABLE
  2
DIMSTYLE
  5
A
330
0
100
AcDbSymbolTable
 70
     1
100
AcDbDimStyleTable
  0
DIMSTYLE
105
27
330
A
100
AcDbSymbolTableRecord
100
AcDbDimStyleTableRecord
  2
ISO-25
 70
     0
 41
2.5
 42
0.625
 43
3.75
 44
1.25
 73
     0
 74
     0
 77
     1
 78
     8
140
2.5
141
2.5
143
0.03937
147
0.625
171
     3
172
     1
271
     2
272
     2
274
     3
278
    44
283
     0
284
     8
340
11
  0
ENDTAB
  0
TABLE
  2
BLOCK_RECORD
  5
1
330
0
100
AcDbSymbolTable
 70
    31
  0
BLOCK_RECORD
  5
1F
330
1
100
AcDbSymbolTableRecord
100
AcDbBlockTableRecord
  2
*Model_Space
340
22
  0
BLOCK_RECORD
  5
1B
330
1
100
AcDbSymbolTableRecord
100
AcDbBlockTableRecord
  2
*Paper_Space
340
1E
  0
BLOCK_RECORD
  5
23
330
1
100
AcDbSymbolTableRecord
100
AcDbBlockTableRecord
  2
*Paper_Space0
340
26
  0
BLOCK_RECORD
  5
30
330
1
100
AcDbSymbolTableRecord
100
AcDbBlockTableRecord
  2
SYM1
340
0
102
{BLKREFS
331
103
102
}
  0
BLOCK_RECORD
  5
201
330
1
100
AcDbSymbolTableRecord
100
AcDbBlockTableRecord
  2
*X12
340
0
102
{BLKREFS
331
20D
102
}
  0
BLOCK_RECORD
  5
283
330
1
100
AcDbSymbolTableRecord
100
AcDbBlockTableRecord
  2
POLY1
340
0
102
{BLKREFS
331
287
102
}
  0
BLOCK_RECORD
  5
297
330
1
100
AcDbSymbolTableRecord
100
AcDbBlockTableRecord
  2
POLY2
340
0
102
{BLKREFS
331
2A6
102
}
  0
BLOCK_RECORD
  5
2A8
330
1
100
AcDbSymbolTableRecord
100
AcDbBlockTableRecord
  2
POLY3
340
0
102
{BLKREFS
331
2B7
102
}
  0
BLOCK_RECORD
  5
2B9
330
1
100
AcDbSymbolTableRecord
100
AcDbBlockTableRecord
  2
POLY4
340
0
102
{BLKREFS
331
2C8
102
}
  0
BLOCK_RECORD
  5
306
330
1
100
AcDbSymbolTableRecord
100
AcDbBlockTableRecord
  2
POLY5
340
0
102
{BLKREFS
331
31D
102
}
  0
BLOCK_RECORD
  5
31E
330
1
100
AcDbSymbolTableRecord
100
AcDbBlockTableRecord
  2
POLY6
340
0
102
{BLKREFS
331
327
102
}
  0
BLOCK_RECORD
  5
328
330
1
100
AcDbSymbolTableRecord
100
AcDbBlockTableRecord
  2
POLY7
340
0
102
{BLKREFS
331
339
102
}
  0
BLOCK_RECORD
  5
33A
330
1
100
AcDbSymbolTableRecord
100
AcDbBlockTableRecord
  2
POLY8
340
0
102
{BLKREFS
331
363
102
}
  0
BLOCK_RECORD
  5
396
330
1
100
AcDbSymbolTableRecord
100
AcDbBlockTableRecord
  2
POLY9
340
0
102
{BLKREFS
331
39F
102
}
  0
BLOCK_RECORD
  5
3A0
330
1
100
AcDbSymbolTableRecord
100
AcDbBlockTableRecord
  2
POLY10
340
0
102
{BLKREFS
331
3A9
102
}
  0
BLOCK_RECORD
  5
3AA
330
1
100
AcDbSymbolTableRecord
100
AcDbBlockTableRecord
  2
POLY11
340
0
102
{BLKREFS
331
3B3
102
}
  0
BLOCK_RECORD
  5
3B4
330
1
100
AcDbSymbolTableRecord
100
AcDbBlockTableRecord
  2
POLY12
340
0
102
{BLKREFS
331
3FF
102
}
  0
BLOCK_RECORD
  5
400
330
1
100
AcDbSymbolTableRecord
100
AcDbBlockTableRecord
  2
POLY13
340
0
102
{BLKREFS
331
409
102
}
  0
BLOCK_RECORD
  5
40A
330
1
100
AcDbSymbolTableRecord
100
AcDbBlockTableRecord
  2
POLY14
340
0
102
{BLKREFS
331
413
102
}
  0
BLOCK_RECORD
  5
414
330
1
100
AcDbSymbolTableRecord
100
AcDbBlockTableRecord
  2
POLY15
340
0
102
{BLKREFS
331
41D
102
}
  0
BLOCK_RECORD
  5
41E
330
1
100
AcDbSymbolTableRecord
100
AcDbBlockTableRecord
  2
POLY16
340
0
102
{BLKREFS
331
469
102
}
  0
BLOCK_RECORD
  5
47E
330
1
100
AcDbSymbolTableRecord
100
AcDbBlockTableRecord
  2
LCDIM1
340
0
102
{BLKREFS
331
49A
102
}
  0
BLOCK_RECORD
  5
49B
330
1
100
AcDbSymbolTableRecord
100
AcDbBlockTableRecord
  2
LCDIM2
340
0
102
{BLKREFS
331
4B4
102
}
  0
BLOCK_RECORD
  5
4B5
330
1
100
AcDbSymbolTableRecord
100
AcDbBlockTableRecord
  2
LCDIM3
340
0
102
{BLKREFS
331
4CE
102
}
  0
BLOCK_RECORD
  5
4CF
330
1
100
AcDbSymbolTableRecord
100
AcDbBlockTableRecord
  2
LCDIM4
340
0
102
{BLKREFS
331
4E8
102
}
  0
BLOCK_RECORD
  5
4E9
330
1
100
AcDbSymbolTableRecord
100
AcDbBlockTableRecord
  2
LCDIM5
340
0
102
{BLKREFS
331
4F7
102
}
  0
BLOCK_RECORD
  5
4F8
330
1
100
AcDbSymbolTableRecord
100
AcDbBlockTableRecord
  2
LCDIM6
340
0
102
{BLKREFS
331
506
102
}
  0
BLOCK_RECORD
  5
507
330
1
100
AcDbSymbolTableRecord
100
AcDbBlockTableRecord
  2
LCDIM7
340
0
102
{BLKREFS
331
520
102
}
  0
BLOCK_RECORD
  5
521
330
1
100
AcDbSymbolTableRecord
100
AcDbBlockTableRecord
  2
LCDIM8
340
0
102
{BLKREFS
331
53A
102
}
  0
BLOCK_RECORD
  5
53B
330
1
100
AcDbSymbolTableRecord
100
AcDbBlockTableRecord
  2
LCDIM9
340
0
102
{BLKREFS
331
549
102
}
  0
BLOCK_RECORD
  5
54A
330
1
100
AcDbSymbolTableRecord
100
AcDbBlockTableRecord
  2
LCDIM10
340
0
102
{BLKREFS
331
563
102
}
  0
BLOCK_RECORD
  5
572
330
1
100
AcDbSymbolTableRecord
100
AcDbBlockTableRecord
  2
*X229
340
0
102
{BLKREFS
331
586
102
}
  0
BLOCK_RECORD
  5
587
330
1
100
AcDbSymbolTableRecord
100
AcDbBlockTableRecord
  2
*X330
340
0
102
{BLKREFS
331
598
102
}
  0
ENDTAB
  0
ENDSEC
  0
SECTION
  2
BLOCKS
  0
BLOCK
  5
20
330
1F
100
AcDbEntity
  8
0
100
AcDbBlockBegin
  2
*Model_Space
 70
     0
 71
     0
 10
0.0
 20
0.0
 30
0.0
  3
*Model_Space
  1

  0
ENDBLK
  5
21
330
1F
100
AcDbEntity
  8
0
100
AcDbBlockEnd
  0
BLOCK
  5
1C
330
1B
100
AcDbEntity
 67
     1
  8
0
100
AcDbBlockBegin
  2
*Paper_Space
 70
     0
 71
     0
 10
0.0
 20
0.0
 30
0.0
  3
*Paper_Space
  1

  0
ENDBLK
  5
1D
330
1B
100
AcDbEntity
 67
     1
  8
0
100
AcDbBlockEnd
  0
BLOCK
  5
24
330
23
100
AcDbEntity
  8
0
100
AcDbBlockBegin
  2
*Paper_Space0
 70
     0
 71
     0
 10
0.0
 20
0.0
 30
0.0
  3
*Paper_Space0
  1

  0
ENDBLK
  5
25
330
23
100
AcDbEntity
  8
0
100
AcDbBlockEnd
  0
BLOCK
  5
31
330
30
100
AcDbEntity
  8
0
100
AcDbBlockBegin
  2
SYM1
 70
     0
 71
     0
 10
0.0
 20
0.0
 30
0.0
  3
SYM1
  1

  4
SYM1
  0
LINE
  5
34
330
30
100
AcDbEntity
  8
LC-001-111-----0
 62
   253
370
    50
100
AcDbLine
 10
2050.0
 20
50.0
 30
0.0
 11
2050.0
 21
2920.0
 31
0.0
  0
LINE
  5
35
330
30
100
AcDbEntity
  8
LC-001-111-----0
 62
   253
370
    25
100
AcDbLine
 10
178.0
 20
220.0
 30
0.0
 11
724.0
 21
220.0
 31
0.0
  0
LINE
  5
36
330
30
100
AcDbEntity
  8
LC-001-111-----0
 62
   253
370
    35
100
AcDbLine
 10
724.0
 20
220.0
 30
0.0
 11
2050.0
 21
220.0
 31
0.0
  0
LINE
  5
37
330
30
100
AcDbEntity
  8
LC-001-111-----0
 62
   253
370
    50
100
AcDbLine
 10
178.0
 20
602.5
 30
0.0
 11
2050.0
 21
602.5
 31
0.0
  0
LINE
  5
38
330
30
100
AcDbEntity
  8
LC-001-111-----0
 62
   253
370
    25
100
AcDbLine
 10
178.0
 20
92.5
 30
0.0
 11
2050.0
 21
92.5
 31
0.0
  0
LINE
  5
39
330
30
100
AcDbEntity
  8
LC-001-111-----0
 62
   253
370
    25
100
AcDbLine
 10
178.0
 20
135.0
 30
0.0
 11
724.0
 21
135.0
 31
0.0
  0
LINE
  5
3A
330
30
100
AcDbEntity
  8
LC-001-111-----0
 62
   253
370
    25
100
AcDbLine
 10
178.0
 20
177.5
 30
0.0
 11
724.0
 21
177.5
 31
0.0
  0
LINE
  5
3B
330
30
100
AcDbEntity
  8
LC-001-111-----0
 62
   253
370
    25
100
AcDbLine
 10
178.0
 20
262.5
 30
0.0
 11
1166.0
 21
262.5
 31
0.0
  0
LINE
  5
3C
330
30
100
AcDbEntity
  8
LC-001-111-----0
 62
   253
370
    25
100
AcDbLine
 10
178.0
 20
305.0
 30
0.0
 11
1166.0
 21
305.0
 31
0.0
  0
LINE
  5
3D
330
30
100
AcDbEntity
  8
LC-001-111-----0
 62
   253
370
    25
100
AcDbLine
 10
178.0
 20
347.5
 30
0.0
 11
1166.0
 21
347.5
 31
0.0
  0
LINE
  5
3E
330
30
100
AcDbEntity
  8
LC-001-111-----0
 62
   253
370
    25
100
AcDbLine
 10
178.0
 20
390.0
 30
0.0
 11
1166.0
 21
390.0
 31
0.0
  0
LINE
  5
3F
330
30
100
AcDbEntity
  8
LC-001-111-----0
 62
   253
370
    35
100
AcDbLine
 10
178.0
 20
432.5
 30
0.0
 11
2050.0
 21
432.5
 31
0.0
  0
LINE
  5
40
330
30
100
AcDbEntity
  8
LC-001-111-----0
 62
   253
370
    25
100
AcDbLine
 10
828.0
 20
262.5
 30
0.0
 11
828.0
 21
432.5
 31
0.0
  0
LINE
  5
41
330
30
100
AcDbEntity
  8
LC-001-111-----0
 62
   253
370
    35
100
AcDbLine
 10
1920.0
 20
92.5
 30
0.0
 11
1920.0
 21
220.0
 31
0.0
  0
LINE
  5
42
330
30
100
AcDbEntity
  8
LC-001-111-----0
 62
   253
370
    25
100
AcDbLine
 10
1166.0
 20
538.75
 30
0.0
 11
2050.0
 21
538.75
 31
0.0
  0
LINE
  5
43
330
30
100
AcDbEntity
  8
LC-001-111-----0
 62
   253
370
    25
100
AcDbLine
 10
256.0
 20
50.0
 30
0.0
 11
256.0
 21
432.5
 31
0.0
  0
LINE
  5
44
330
30
100
AcDbEntity
  8
LC-001-111-----0
 62
   253
370
    25
100
AcDbLine
 10
516.0
 20
50.0
 30
0.0
 11
516.0
 21
432.5
 31
0.0
  0
LINE
  5
45
330
30
100
AcDbEntity
  8
LC-001-111-----0
 62
   253
370
    25
100
AcDbLine
 10
646.0
 20
50.0
 30
0.0
 11
646.0
 21
432.5
 31
0.0
  0
LINE
  5
46
330
30
100
AcDbEntity
  8
LC-001-111-----0
 62
   253
370
    35
100
AcDbLine
 10
724.0
 20
50.0
 30
0.0
 11
724.0
 21
602.5
 31
0.0
  0
LINE
  5
47
330
30
100
AcDbEntity
  8
LC-001-111-----0
 62
   253
370
    35
100
AcDbLine
 10
1166.0
 20
50.0
 30
0.0
 11
1166.0
 21
602.5
 31
0.0
  0
LINE
  5
48
330
30
100
AcDbEntity
  8
LC-001-111-----0
 62
   253
370
    25
100
AcDbLine
 10
1920.0
 20
135.0
 30
0.0
 11
2050.0
 21
135.0
 31
0.0
  0
LINE
  5
49
330
30
100
AcDbEntity
  8
LC-001-111-----0
 62
   253
370
    25
100
AcDbLine
 10
984.0
 20
220.0
 30
0.0
 11
984.0
 21
602.5
 31
0.0
  0
LINE
  5
4A
330
30
100
AcDbEntity
  8
LC-001-111-----0
 62
   253
370
    25
100
AcDbLine
 10
1686.0
 20
538.75
 30
0.0
 11
1686.0
 21
602.5
 31
0.0
  0
LINE
  5
4B
330
30
100
AcDbEntity
  8
LC-001-111-----0
 62
   253
370
    25
100
AcDbLine
 10
1608.0
 20
50.0
 30
0.0
 11
1608.0
 21
92.5
 31
0.0
  0
LINE
  5
4C
330
30
100
AcDbEntity
  8
LC-001-111-----0
 62
   253
370
    50
100
AcDbLine
 10
178.0
 20
50.0
 30
0.0
 11
178.0
 21
2920.0
 31
0.0
  0
LINE
  5
4D
330
30
100
AcDbEntity
  8
LC-001-111-----0
 62
   253
370
    50
100
AcDbLine
 10
178.0
 20
2920.0
 30
0.0
 11
2050.0
 21
2920.0
 31
0.0
  0
TEXT
  5
4E
330
30
100
AcDbEntity
  8
LC-001-111-----0
 62
     7
370
    25
100
AcDbText
 10
1471.410714
 20
558.125
 30
0.0
 40
25.0
  1
1:10
 41
0.75
  7
LCTX0-400-0-0pDIN-Schrift
 72
     1
 11
1504.0
 21
558.125
 31
0.0
100
AcDbText
  0
TEXT
  5
4F
330
30
100
AcDbEntity
  8
LC-001-111-----0
 62
     7
370
    25
100
AcDbText
 10
740.285714
 20
398.75
 30
0.0
 40
25.0
  1
2007
 41
0.75
  7
LCTX0-400-0-0pDIN-Schrift
 72
     1
 11
776.0
 21
398.75
 31
0.0
100
AcDbText
  0
TEXT
  5
50
330
30
100
AcDbEntity
  8
LC-001-111-----0
 62
     7
370
    25
100
AcDbText
 10
861.803571
 20
356.25
 30
0.0
 40
25.0
  1
21.08.
 41
0.75
  7
LCTX0-400-0-0pDIN-Schrift
 72
     1
 11
906.0
 21
356.25
 31
0.0
100
AcDbText
  0
TEXT
  5
51
330
30
100
AcDbEntity
  8
LC-001-111-----0
 62
     7
370
    25
100
AcDbText
 10
1056.696429
 20
356.25
 30
0.0
 40
25.0
  1
HÄ
 41
0.75
  7
LCTX0-400-0-0pDIN-Schrift
 72
     1
 11
1075.0
 21
356.25
 31
0.0
100
AcDbText
  0
TEXT
  5
52
330
30
100
AcDbEntity
  8
LC-001-111-----0
 62
   253
370
    20
100
AcDbText
 10
1183.923077
 20
560.625
 30
0.0
 40
20.0
  1
Maßstab
 41
0.75
  7
LCTX0-400-0-0pDIN-Schrift
100
AcDbText
  0
TEXT
  5
53
330
30
100
AcDbEntity
  8
LC-001-111-----0
 62
   253
370
    20
100
AcDbText
 10
869.928571
 20
401.25
 30
0.0
 40
20.0
  1
Datum
 41
0.75
  7
LCTX0-400-0-0pDIN-Schrift
 72
     1
 11
906.0
 21
401.25
 31
0.0
100
AcDbText
  0
TEXT
  5
54
330
30
100
AcDbEntity
  8
LC-001-111-----0
 62
   253
370
    20
100
AcDbText
 10
1042.857143
 20
401.25
 30
0.0
 40
20.0
  1
Name
 41
0.75
  7
LCTX0-400-0-0pDIN-Schrift
 72
     1
 11
1075.0
 21
401.25
 31
0.0
100
AcDbText
  0
TEXT
  5
55
330
30
100
AcDbEntity
  8
LC-001-111-----0
 62
   253
370
    20
100
AcDbText
 10
741.923077
 20
358.75
 30
0.0
 40
20.0
  1
Bearb.
 41
0.75
  7
LCTX0-400-0-0pDIN-Schrift
100
AcDbText
  0
TEXT
  5
56
330
30
100
AcDbEntity
  8
LC-001-111-----0
 62
   253
370
    20
100
AcDbText
 10
741.923077
 20
316.25
 30
0.0
 40
20.0
  1
Gepr.
 41
0.75
  7
LCTX0-400-0-0pDIN-Schrift
100
AcDbText
  0
TEXT
  5
57
330
30
100
AcDbEntity
  8
LC-001-111-----0
 62
   253
370
    20
100
AcDbText
 10
741.923077
 20
273.75
 30
0.0
 40
20.0
  1
Norm
 41
0.75
  7
LCTX0-400-0-0pDIN-Schrift
100
AcDbText
  0
TEXT
  5
58
330
30
100
AcDbEntity
  8
LC-001-111-----0
 62
   253
370
    20
100
AcDbText
 10
1937.923077
 20
188.75
 30
0.0
 40
20.0
  1
Blatt
 41
0.75
  7
LCTX0-400-0-0pDIN-Schrift
100
AcDbText
  0
TEXT
  5
59
330
30
100
AcDbEntity
  8
LC-001-111-----0
 62
   253
370
    20
100
AcDbText
 10
2012.076923
 20
103.75
 30
0.0
 40
20.0
  1
Bl.
 41
0.75
  7
LCTX0-400-0-0pDIN-Schrift
 72
     2
 11
2037.076923
 21
103.75
 31
0.0
100
AcDbText
  0
TEXT
  5
5A
330
30
100
AcDbEntity
  8
LC-001-111-----0
 62
   253
370
    20
100
AcDbText
 10
200.0
 20
61.25
 30
0.0
 40
20.0
  1
Zust.
 41
0.6
  7
LCTX0-400-0-0pDIN-Schrift
 72
     1
 11
222.0
 21
61.25
 31
0.0
100
AcDbText
  0
TEXT
  5
5B
330
30
100
AcDbEntity
  8
LC-001-111-----0
 62
   253
370
    20
100
AcDbText
 10
334.928571
 20
61.25
 30
0.0
 40
20.0
  1
Änderung
 41
0.75
  7
LCTX0-400-0-0pDIN-Schrift
 72
     1
 11
386.0
 21
61.25
 31
0.0
100
AcDbText
  0
TEXT
  5
5C
330
30
100
AcDbEntity
  8
LC-001-111-----0
 62
   253
370
    20
100
AcDbText
 10
544.928571
 20
61.25
 30
0.0
 40
20.0
  1
Datum
 41
0.75
  7
LCTX0-400-0-0pDIN-Schrift
 72
     1
 11
581.0
 21
61.25
 31
0.0
100
AcDbText
  0
TEXT
  5
5D
330
30
100
AcDbEntity
  8
LC-001-111-----0
 62
   253
370
    20
100
AcDbText
 10
652.857143
 20
61.25
 30
0.0
 40
20.0
  1
Name
 41
0.75
  7
LCTX0-400-0-0pDIN-Schrift
 72
     1
 11
685.0
 21
61.25
 31
0.0
100
AcDbText
  0
TEXT
  5
5E
330
30
100
AcDbEntity
  8
LC-001-111-----0
 62
     7
370
    50
100
AcDbText
 10
1427.642857
 20
343.75
 30
0.0
 40
50.0
  1
Solido N-75
 41
0.75
  7
LCTX0-400-0-0pDIN-Schrift
 72
     1
 11
1608.0
 21
343.75
 31
0.0
100
AcDbText
  0
TEXT
  5
5F
330
30
100
AcDbEntity
  8
LC-001-111-----0
 62
     7
370
    35
100
AcDbText
 10
1354.481148
 20
266.25
 30
0.0
 40
35.0
  1
undermount installation only
 41
0.75
  7
LCTX0-400-0-0pDIN-Schrift
100
AcDbText
  0
TEXT
  5
60
330
30
100
AcDbEntity
  8
LC-001-111-----0
 62
     7
370
    50
100
AcDbText
 10
1334.071429
 20
131.25
 30
0.0
 40
50.0
  1
4.07.511.04.01
 41
0.75
  7
LCTX0-400-0-0pDIN-Schrift
 72
     1
 11
1543.0
 21
131.25
 31
0.0
100
AcDbText
  0
ARC
  5
61
330
30
100
AcDbEntity
  8
LC-001-111-----0
 62
   253
370
    25
100
AcDbCircle
 10
758.903191
 20
174.567744
 30
0.0
 40
20.81533311668208
100
AcDbArc
 50
62.408264
 51
94.48185
  0
LINE
  5
62
330
30
100
AcDbEntity
  8
LC-001-111-----0
 62
   253
370
    50
100
AcDbLine
 10
178.0
 20
50.0
 30
0.0
 11
2050.0
 21
50.0
 31
0.0
  0
LINE
  5
63
330
30
100
AcDbEntity
  8
LC-001-111-----0
 62
   253
370
    25
100
AcDbLine
 10
50.0
 20
1485.0
 30
0.0
 11
0.0
 21
1485.0
 31
0.0
  0
LINE
  5
64
330
30
100
AcDbEntity
  8
LC-001-111-----0
 62
   253
370
    25
100
AcDbLine
 10
1063.835603
 20
195.169147
 30
0.0
 11
1063.835603
 21
157.149147
 31
0.0
  0
LINE
  5
65
330
30
100
AcDbEntity
  8
LC-001-111-----0
 62
   253
370
    25
100
AcDbLine
 10
2100.0
 20
2970.0
 30
0.0
 11
2100.0
 21
0.0
 31
0.0
  0
LINE
  5
66
330
30
100
AcDbEntity
  8
LC-001-111-----0
 62
   253
370
    25
100
AcDbLine
 10
2100.0
 20
0.0
 30
0.0
 11
0.0
 21
0.0
 31
0.0
  0
LINE
  5
67
330
30
100
AcDbEntity
  8
LC-001-111-----0
 62
   253
370
    25
100
AcDbLine
 10
0.0
 20
0.0
 30
0.0
 11
0.0
 21
2970.0
 31
0.0
  0
LINE
  5
68
330
30
100
AcDbEntity
  8
LC-001-111-----0
 62
   253
370
    25
100
AcDbLine
 10
2100.0
 20
2970.0
 30
0.0
 11
0.0
 21
2970.0
 31
0.0
  0
TEXT
  5
69
330
30
100
AcDbEntity
  8
LC-001-111-----0
 62
   253
370
    20
100
AcDbText
 10
763.0
 20
111.159147
 30
0.0
 40
20.0
  1
Hofbauerstraße1 · D-94209 REGEN
 41
0.65
  7
LCTX0-400-0-0pDIN-Schrift
 72
     1
 11
945.0
 21
111.159147
 31
0.0
100
AcDbText
  0
ARC
  5
6A
330
30
100
AcDbEntity
  8
LC-001-111-----0
 62
   253
370
    25
100
AcDbCircle
 10
758.032826
 20
185.671748
 30
0.0
 40
9.677270814709853
100
AcDbArc
 50
94.48185
 51
252.731329
  0
ARC
  5
6B
330
30
100
AcDbEntity
  8
LC-001-111-----0
 62
   253
370
    25
100
AcDbCircle
 10
823.845603
 20
176.159147
 30
0.0
 40
19.01000000000008
100
AcDbArc
 50
74.719456
 51
285.280544
  0
LINE
  5
6C
330
30
100
AcDbEntity
  8
LC-001-111-----0
 62
   253
370
    25
100
AcDbLine
 10
828.855603
 20
157.821208
 30
0.0
 11
828.855603
 21
163.204148
 31
0.0
  0
ARC
  5
6D
330
30
100
AcDbEntity
  8
LC-001-111-----0
 62
   253
370
    25
100
AcDbCircle
 10
823.845603
 20
176.159147
 30
0.0
 40
13.88999999999995
100
AcDbArc
 50
68.857352
 51
291.142648
  0
ARC
  5
6E
330
30
100
AcDbEntity
  8
LC-001-111-----0
 62
   253
370
    25
100
AcDbCircle
 10
823.845603
 20
176.159147
 30
0.0
 40
12.39000000000002
100
AcDbArc
 50
58.303227
 51
301.696773
  0
ARC
  5
6F
330
30
100
AcDbEntity
  8
LC-001-111-----0
 62
   253
370
    25
100
AcDbCircle
 10
1019.845603
 20
176.159147
 30
0.0
 40
19.01000000000008
100
AcDbArc
 50
74.719456
 51
285.280544
  0
LINE
  5
70
330
30
100
AcDbEntity
  8
LC-001-111-----0
 62
   253
370
    25
100
AcDbLine
 10
830.355603
 20
165.617231
 30
0.0
 11
830.355603
 21
156.709726
 31
0.0
  0
LINE
  5
71
330
30
100
AcDbEntity
  8
LC-001-111-----0
 62
   253
370
    25
100
AcDbLine
 10
755.160101
 20
176.430697
 30
0.0
 11
762.683613
 21
174.091896
 31
0.0
  0
ARC
  5
72
330
30
100
AcDbEntity
  8
LC-001-111-----0
 62
   253
370
    25
100
AcDbCircle
 10
823.845603
 20
176.159147
 30
0.0
 40
20.51000000000012
100
AcDbArc
 50
71.493868
 51
288.506132
  0
LINE
  5
73
330
30
100
AcDbEntity
  8
LC-001-111-----0
 62
   253
370
    25
100
AcDbLine
 10
1024.855603
 20
157.821208
 30
0.0
 11
1024.855603
 21
163.204148
 31
0.0
  0
LINE
  5
74
330
30
100
AcDbEntity
  8
LC-001-111-----0
 62
   253
370
    25
100
AcDbLine
 10
830.355603
 20
195.608569
 30
0.0
 11
830.355603
 21
186.701063
 31
0.0
  0
ARC
  5
75
330
30
100
AcDbEntity
  8
LC-001-111-----0
 62
   253
370
    25
100
AcDbCircle
 10
1019.845603
 20
176.159147
 30
0.0
 40
13.88999999999995
100
AcDbArc
 50
68.857352
 51
291.142648
  0
LINE
  5
76
330
30
100
AcDbEntity
  8
LC-001-111-----0
 62
   253
370
    25
100
AcDbLine
 10
862.835603
 20
155.649147
 30
0.0
 11
862.835603
 21
196.669147
 31
0.0
  0
LINE
  5
77
330
30
100
AcDbEntity
  8
LC-001-111-----0
 62
   253
370
    25
100
AcDbLine
 10
862.835603
 20
196.669147
 30
0.0
 11
872.355603
 21
196.669147
 31
0.0
  0
LINE
  5
78
330
30
100
AcDbEntity
  8
LC-001-111-----0
 62
   253
370
    25
100
AcDbLine
 10
872.355603
 20
196.669147
 30
0.0
 11
872.355603
 21
179.519147
 31
0.0
  0
LINE
  5
79
330
30
100
AcDbEntity
  8
LC-001-111-----0
 62
   253
370
    25
100
AcDbLine
 10
872.355603
 20
179.519147
 30
0.0
 11
887.335603
 21
179.519147
 31
0.0
  0
LINE
  5
7A
330
30
100
AcDbEntity
  8
LC-001-111-----0
 62
   253
370
    25
100
AcDbLine
 10
887.335603
 20
179.519147
 30
0.0
 11
887.335603
 21
196.669147
 31
0.0
  0
LINE
  5
7B
330
30
100
AcDbEntity
  8
LC-001-111-----0
 62
   253
370
    25
100
AcDbLine
 10
887.335603
 20
196.669147
 30
0.0
 11
896.855603
 21
196.669147
 31
0.0
  0
LINE
  5
7C
330
30
100
AcDbEntity
  8
LC-001-111-----0
 62
   253
370
    25
100
AcDbLine
 10
896.855603
 20
196.669147
 30
0.0
 11
896.855603
 21
155.649147
 31
0.0
  0
LINE
  5
7D
330
30
100
AcDbEntity
  8
LC-001-111-----0
 62
   253
370
    25
100
AcDbLine
 10
896.855603
 20
155.649147
 30
0.0
 11
887.335603
 21
155.649147
 31
0.0
  0
LINE
  5
7E
330
30
100
AcDbEntity
  8
LC-001-111-----0
 62
   253
370
    25
100
AcDbLine
 10
887.335603
 20
155.649147
 30
0.0
 11
887.335603
 21
172.799147
 31
0.0
  0
LINE
  5
7F
330
30
100
AcDbEntity
  8
LC-001-111-----0
 62
   253
370
    25
100
AcDbLine
 10
887.335603
 20
172.799147
 30
0.0
 11
872.355603
 21
172.799147
 31
0.0
  0
LINE
  5
80
330
30
100
AcDbEntity
  8
LC-001-111-----0
 62
   253
370
    25
100
AcDbLine
 10
872.355603
 20
172.799147
 30
0.0
 11
872.355603
 21
155.649147
 31
0.0
  0
LINE
  5
81
330
30
100
AcDbEntity
  8
LC-001-111-----0
 62
   253
370
    25
100
AcDbLine
 10
872.355603
 20
155.649147
 30
0.0
 11
862.835603
 21
155.649147
 31
0.0
  0
CIRCLE
  5
82
330
30
100
AcDbEntity
  8
LC-001-111-----0
 62
   253
370
    25
100
AcDbCircle
 10
946.345603
 20
176.159147
 30
0.0
 40
12.39000000000044
  0
CIRCLE
  5
83
330
30
100
AcDbEntity
  8
LC-001-111-----0
 62
   253
370
    25
100
AcDbCircle
 10
946.345603
 20
176.159147
 30
0.0
 40
20.51000000000049
  0
ARC
  5
84
330
30
100
AcDbEntity
  8
LC-001-111-----0
 62
   253
370
    25
100
AcDbCircle
 10
1019.845603
 20
176.159147
 30
0.0
 40
12.39000000000002
100
AcDbArc
 50
58.303227
 51
301.696773
  0
LINE
  5
85
330
30
100
AcDbEntity
  8
LC-001-111-----0
 62
   253
370
    25
100
AcDbLine
 10
864.335603
 20
195.169147
 30
0.0
 11
864.335603
 21
157.149147
 31
0.0
  0
LINE
  5
86
330
30
100
AcDbEntity
  8
LC-001-111-----0
 62
   253
370
    25
100
AcDbLine
 10
1026.355603
 20
165.617231
 30
0.0
 11
1026.355603
 21
156.709726
 31
0.0
  0
LINE
  5
87
330
30
100
AcDbEntity
  8
LC-001-111-----0
 62
   253
370
    25
100
AcDbLine
 10
864.335603
 20
157.149147
 30
0.0
 11
870.855603
 21
157.149147
 31
0.0
  0
LINE
  5
88
330
30
100
AcDbEntity
  8
LC-001-111-----0
 62
   253
370
    25
100
AcDbLine
 10
870.855603
 20
157.149147
 30
0.0
 11
870.855603
 21
174.299147
 31
0.0
  0
LINE
  5
89
330
30
100
AcDbEntity
  8
LC-001-111-----0
 62
   253
370
    25
100
AcDbLine
 10
870.855603
 20
174.299147
 30
0.0
 11
888.835603
 21
174.299147
 31
0.0
  0
LINE
  5
8A
330
30
100
AcDbEntity
  8
LC-001-111-----0
 62
   253
370
    25
100
AcDbLine
 10
888.835603
 20
174.299147
 30
0.0
 11
888.835603
 21
157.149147
 31
0.0
  0
LINE
  5
8B
330
30
100
AcDbEntity
  8
LC-001-111-----0
 62
   253
370
    25
100
AcDbLine
 10
888.835603
 20
157.149147
 30
0.0
 11
895.355603
 21
157.149147
 31
0.0
  0
LINE
  5
8C
330
30
100
AcDbEntity
  8
LC-001-111-----0
 62
   253
370
    25
100
AcDbLine
 10
895.355603
 20
157.149147
 30
0.0
 11
895.355603
 21
195.169147
 31
0.0
  0
LINE
  5
8D
330
30
100
AcDbEntity
  8
LC-001-111-----0
 62
   253
370
    25
100
AcDbLine
 10
895.355603
 20
195.169147
 30
0.0
 11
888.835603
 21
195.169147
 31
0.0
  0
LINE
  5
8E
330
30
100
AcDbEntity
  8
LC-001-111-----0
 62
   253
370
    25
100
AcDbLine
 10
888.835603
 20
195.169147
 30
0.0
 11
888.835603
 21
178.019147
 31
0.0
  0
LINE
  5
8F
330
30
100
AcDbEntity
  8
LC-001-111-----0
 62
   253
370
    25
100
AcDbLine
 10
888.835603
 20
178.019147
 30
0.0
 11
870.855603
 21
178.019147
 31
0.0
  0
LINE
  5
90
330
30
100
AcDbEntity
  8
LC-001-111-----0
 62
   253
370
    25
100
AcDbLine
 10
870.855603
 20
178.019147
 30
0.0
 11
870.855603
 21
195.169147
 31
0.0
  0
CIRCLE
  5
91
330
30
100
AcDbEntity
  8
LC-001-111-----0
 62
   253
370
    25
100
AcDbCircle
 10
946.345603
 20
176.159147
 30
0.0
 40
19.01000000000055
  0
ARC
  5
92
330
30
100
AcDbEntity
  8
LC-001-111-----0
 62
   253
370
    25
100
AcDbCircle
 10
760.836588
 20
168.15034
 30
0.0
 40
6.222024781007809
100
AcDbArc
 50
268.246912
 51
72.731329
  0
ARC
  5
93
330
30
100
AcDbEntity
  8
LC-001-111-----0
 62
   253
370
    25
100
AcDbCircle
 10
761.412387
 20
186.963179
 30
0.0
 40
25.04367341134793
100
AcDbArc
 50
239.19233
 51
268.246912
  0
LINE
  5
94
330
30
100
AcDbEntity
  8
LC-001-111-----0
 62
   253
370
    25
100
AcDbLine
 10
748.586073
 20
165.453385
 30
0.0
 11
748.586073
 21
160.350534
 31
0.0
  0
ARC
  5
95
330
30
100
AcDbEntity
  8
LC-001-111-----0
 62
   253
370
    25
100
AcDbCircle
 10
760.81067
 20
180.45076
 30
0.0
 40
23.52572762426598
100
AcDbArc
 50
238.692783
 51
274.343327
  0
ARC
  5
96
330
30
100
AcDbEntity
  8
LC-001-111-----0
 62
   253
370
    25
100
AcDbCircle
 10
1019.845603
 20
176.159147
 30
0.0
 40
20.51000000000012
100
AcDbArc
 50
71.493868
 51
288.506132
  0
ARC
  5
97
330
30
100
AcDbEntity
  8
LC-001-111-----0
 62
   253
370
    25
100
AcDbCircle
 10
761.779647
 20
167.692822
 30
0.0
 40
10.73104525444839
100
AcDbArc
 50
274.343327
 51
74.255463
  0
LINE
  5
98
330
30
100
AcDbEntity
  8
LC-001-111-----0
 62
   253
370
    25
100
AcDbLine
 10
1026.355603
 20
195.608569
 30
0.0
 11
1026.355603
 21
186.701063
 31
0.0
  0
LINE
  5
99
330
30
100
AcDbEntity
  8
LC-001-111-----0
 62
   253
370
    25
100
AcDbLine
 10
764.691502
 20
178.02125
 30
0.0
 11
757.135251
 21
180.151556
 31
0.0
  0
LINE
  5
9A
330
30
100
AcDbEntity
  8
LC-001-111-----0
 62
   253
370
    25
100
AcDbLine
 10
1024.855603
 20
189.114146
 30
0.0
 11
1024.855603
 21
194.497086
 31
0.0
  0
ARC
  5
9B
330
30
100
AcDbEntity
  8
LC-001-111-----0
 62
   253
370
    25
100
AcDbCircle
 10
758.632108
 20
185.460948
 30
0.0
 40
5.51636013010035
100
AcDbArc
 50
90.951212
 51
254.255463
  0
ARC
  5
9C
330
30
100
AcDbEntity
  8
LC-001-111-----0
 62
   253
370
    25
100
AcDbCircle
 10
758.906662
 20
168.924866
 30
0.0
 40
22.05472179307849
100
AcDbArc
 50
64.088485
 51
90.951212
  0
LINE
  5
9D
330
30
100
AcDbEntity
  8
LC-001-111-----0
 62
   253
370
    25
100
AcDbLine
 10
768.544191
 20
188.762426
 30
0.0
 11
768.544191
 21
193.015758
 31
0.0
  0
LINE
  5
9E
330
30
100
AcDbEntity
  8
LC-001-111-----0
 62
   253
370
    25
100
AcDbLine
 10
1071.855603
 20
177.513832
 30
0.0
 11
1087.818366
 21
196.669147
 31
0.0
  0
LINE
  5
9F
330
30
100
AcDbEntity
  8
LC-001-111-----0
 62
   253
370
    25
100
AcDbLine
 10
1087.818366
 20
196.669147
 30
0.0
 11
1099.299433
 21
196.669147
 31
0.0
  0
LINE
  5
A0
330
30
100
AcDbEntity
  8
LC-001-111-----0
 62
   253
370
    25
100
AcDbLine
 10
1099.299433
 20
196.669147
 30
0.0
 11
1082.207766
 21
176.159147
 31
0.0
  0
LINE
  5
A2
330
30
100
AcDbEntity
  8
LC-002-002-----0
 62
     1
370
    25
100
AcDbLine
 10
1143.855603
 20
159.963432
 30
0.0
 11
1143.855603
 21
192.354862
 31
0.0
  0
LINE
  5
A3
330
30
100
AcDbEntity
  8
LC-002-002-----0
 62
     1
370
    25
100
AcDbLine
 10
1143.855603
 20
192.354862
 30
0.0
 11
1127.659888
 21
176.159147
 31
0.0
  0
LINE
  5
A4
330
30
100
AcDbEntity
  8
LC-002-002-----0
 62
     1
370
    25
100
AcDbLine
 10
1127.659888
 20
176.159147
 30
0.0
 11
1143.855603
 21
159.963432
 31
0.0
  0
LINE
  5
A5
330
30
100
AcDbEntity
  8
LC-002-002-----0
 62
     1
370
    25
100
AcDbLine
 10
1142.355603
 20
163.584752
 30
0.0
 11
1142.355603
 21
188.733542
 31
0.0
  0
LINE
  5
A6
330
30
100
AcDbEntity
  8
LC-001-111-----0
 62
   253
370
    25
100
AcDbLine
 10
1082.207766
 20
176.159147
 30
0.0
 11
1099.299433
 21
155.649147
 31
0.0
  0
LINE
  5
A7
330
30
100
AcDbEntity
  8
LC-001-111-----0
 62
   253
370
    25
100
AcDbLine
 10
1099.299433
 20
155.649147
 30
0.0
 11
1087.818366
 21
155.649147
 31
0.0
  0
LINE
  5
A8
330
30
100
AcDbEntity
  8
LC-001-111-----0
 62
   253
370
    25
100
AcDbLine
 10
1087.818366
 20
155.649147
 30
0.0
 11
1071.855603
 21
174.804462
 31
0.0
  0
LINE
  5
A9
330
30
100
AcDbEntity
  8
LC-001-111-----0
 62
   253
370
    25
100
AcDbLine
 10
1062.335603
 20
155.649147
 30
0.0
 11
1062.335603
 21
196.669147
 31
0.0
  0
LINE
  5
AA
330
30
100
AcDbEntity
  8
LC-001-111-----0
 62
   253
370
    25
100
AcDbLine
 10
828.855603
 20
189.114146
 30
0.0
 11
828.855603
 21
194.497086
 31
0.0
  0
ARC
  5
AB
330
30
100
AcDbEntity
  8
LC-001-111-----0
 62
   253
370
    25
100
AcDbCircle
 10
758.903191
 20
174.567744
 30
0.0
 40
19.31533311668209
100
AcDbArc
 50
65.072024
 51
94.48185
  0
LINE
  5
AC
330
30
100
AcDbEntity
  8
LC-001-111-----0
 62
   253
370
    25
100
AcDbLine
 10
1063.835603
 20
157.149147
 30
0.0
 11
1070.355603
 21
157.149147
 31
0.0
  0
LINE
  5
AD
330
30
100
AcDbEntity
  8
LC-001-111-----0
 62
   253
370
    25
100
AcDbLine
 10
1070.355603
 20
157.149147
 30
0.0
 11
1070.355603
 21
195.169147
 31
0.0
  0
LINE
  5
AE
330
30
100
AcDbEntity
  8
LC-001-111-----0
 62
   253
370
    25
100
AcDbLine
 10
1070.355603
 20
195.169147
 30
0.0
 11
1063.835603
 21
195.169147
 31
0.0
  0
LINE
  5
AF
330
30
100
AcDbEntity
  8
LC-001-111-----0
 62
   253
370
    25
100
AcDbLine
 10
1065.335603
 20
193.669147
 30
0.0
 11
1065.335603
 21
158.649147
 31
0.0
  0
LINE
  5
B0
330
30
100
AcDbEntity
  8
LC-002-002-----0
 62
     1
370
    25
100
AcDbLine
 10
1142.355603
 20
188.733542
 30
0.0
 11
1129.781208
 21
176.159147
 31
0.0
  0
LINE
  5
B1
330
30
100
AcDbEntity
  8
LC-002-002-----0
 62
     1
370
    25
100
AcDbLine
 10
1129.781208
 20
176.159147
 30
0.0
 11
1142.355603
 21
163.584752
 31
0.0
  0
LINE
  5
B2
330
30
100
AcDbEntity
  8
LC-001-111-----0
 62
   253
370
    25
100
AcDbLine
 10
1062.335603
 20
196.669147
 30
0.0
 11
1071.855603
 21
196.669147
 31
0.0
  0
LINE
  5
B3
330
30
100
AcDbEntity
  8
LC-001-111-----0
 62
   253
370
    25
100
AcDbLine
 10
1071.855603
 20
196.669147
 30
0.0
 11
1071.855603
 21
155.649147
 31
0.0
  0
LINE
  5
B4
330
30
100
AcDbEntity
  8
LC-001-111-----0
 62
   253
370
    25
100
AcDbLine
 10
1071.855603
 20
155.649147
 30
0.0
 11
1062.335603
 21
155.649147
 31
0.0
  0
ARC
  5
B5
330
30
100
AcDbEntity
  8
LC-001-111-----0
 62
   253
370
    25
100
AcDbCircle
 10
758.032826
 20
185.671748
 30
0.0
 40
8.177270814709827
100
AcDbArc
 50
94.48185
 51
252.731329
  0
LINE
  5
B6
330
30
100
AcDbEntity
  8
LC-001-111-----0
 62
   253
370
    25
100
AcDbLine
 10
755.60538
 20
177.863082
 30
0.0
 11
763.128892
 21
175.524281
 31
0.0
  0
ARC
  5
B7
330
30
100
AcDbEntity
  8
LC-001-111-----0
 62
   253
370
    25
100
AcDbCircle
 10
760.836588
 20
168.15034
 30
0.0
 40
7.72202478100773
100
AcDbArc
 50
268.246912
 51
72.731329
  0
LINE
  5
B8
330
30
100
AcDbEntity
  8
LC-001-111-----0
 62
   253
370
    25
100
AcDbLine
 10
827.355603
 20
191.143539
 30
0.0
 11
827.355603
 21
193.313738
 31
0.0
  0
ARC
  5
B9
330
30
100
AcDbEntity
  8
LC-001-111-----0
 62
   253
370
    25
100
AcDbCircle
 10
823.845603
 20
176.159147
 30
0.0
 40
17.50999999999996
100
AcDbArc
 50
78.436322
 51
281.563678
  0
LINE
  5
BA
330
30
100
AcDbEntity
  8
LC-001-111-----0
 62
   253
370
    25
100
AcDbLine
 10
827.355603
 20
159.004556
 30
0.0
 11
827.355603
 21
161.174755
 31
0.0
  0
LINE
  5
BB
330
30
100
AcDbEntity
  8
LC-002-002-----0
 62
     1
370
    25
100
AcDbLine
 10
1145.355603
 20
195.976182
 30
0.0
 11
1145.355603
 21
156.342112
 31
0.0
  0
LINE
  5
BC
330
30
100
AcDbEntity
  8
LC-002-002-----0
 62
     1
370
    25
100
AcDbLine
 10
1145.355603
 20
156.342112
 30
0.0
 11
1125.538568
 21
176.159147
 31
0.0
  0
LINE
  5
BD
330
30
100
AcDbEntity
  8
LC-002-002-----0
 62
     1
370
    25
100
AcDbLine
 10
1125.538568
 20
176.159147
 30
0.0
 11
1145.355603
 21
195.976182
 31
0.0
  0
LINE
  5
BE
330
30
100
AcDbEntity
  8
LC-001-111-----0
 62
   253
370
    25
100
AcDbLine
 10
1065.335603
 20
158.649147
 30
0.0
 11
1068.855603
 21
158.649147
 31
0.0
  0
LINE
  5
BF
330
30
100
AcDbEntity
  8
LC-001-111-----0
 62
   253
370
    25
100
AcDbLine
 10
1068.855603
 20
158.649147
 30
0.0
 11
1068.855603
 21
193.669147
 31
0.0
  0
LINE
  5
C0
330
30
100
AcDbEntity
  8
LC-001-111-----0
 62
   253
370
    25
100
AcDbLine
 10
1068.855603
 20
193.669147
 30
0.0
 11
1065.335603
 21
193.669147
 31
0.0
  0
LINE
  5
C1
330
30
100
AcDbEntity
  8
LC-001-111-----0
 62
   253
370
    25
100
AcDbLine
 10
1067.095603
 20
192.169147
 30
0.0
 11
1067.095603
 21
160.149147
 31
0.0
  0
ARC
  5
C2
330
30
100
AcDbEntity
  8
LC-001-111-----0
 62
   253
370
    25
100
AcDbCircle
 10
823.845603
 20
176.159147
 30
0.0
 40
15.38999999999992
100
AcDbArc
 50
76.816519
 51
283.183481
  0
LINE
  5
C3
330
30
100
AcDbEntity
  8
LC-001-111-----0
 62
   253
370
    25
100
AcDbLine
 10
870.855603
 20
195.169147
 30
0.0
 11
864.335603
 21
195.169147
 31
0.0
  0
LINE
  5
C4
330
30
100
AcDbEntity
  8
LC-001-111-----0
 62
   253
370
    25
100
AcDbLine
 10
1096.09687
 20
195.169147
 30
0.0
 11
1088.520928
 21
195.169147
 31
0.0
  0
LINE
  5
C5
330
30
100
AcDbEntity
  8
LC-001-111-----0
 62
   253
370
    25
100
AcDbLine
 10
865.835603
 20
158.649147
 30
0.0
 11
869.355603
 21
158.649147
 31
0.0
  0
LINE
  5
C6
330
30
100
AcDbEntity
  8
LC-001-111-----0
 62
   253
370
    25
100
AcDbLine
 10
1023.355603
 20
191.143539
 30
0.0
 11
1023.355603
 21
193.313738
 31
0.0
  0
LINE
  5
C7
330
30
100
AcDbEntity
  8
LC-001-111-----0
 62
   253
370
    25
100
AcDbLine
 10
892.095603
 20
192.169147
 30
0.0
 11
892.095603
 21
160.149147
 31
0.0
  0
TEXT
  5
C8
330
30
100
AcDbEntity
  8
LC-001-111-----0
 62
     1
370
    15
100
AcDbText
 10
1885.678571
 20
21.25
 30
0.0
 40
15.0
  1
Solido-N75-inch
 41
0.75
  7
LCTX0-400-0-0pDIN-Schrift
 72
     1
 11
1958.0
 21
21.25
 31
0.0
100
AcDbText
  0
CIRCLE
  5
C9
330
30
100
AcDbEntity
  8
LC-001-111-----0
 62
   253
370
    25
100
AcDbCircle
 10
946.345603
 20
176.159147
 30
0.0
 40
17.51000000000047
  0
LINE
  5
CA
330
30
100
AcDbEntity
  8
LC-001-111-----0
 62
   253
370
    25
100
AcDbLine
 10
1088.520928
 20
195.169147
 30
0.0
 11
1072.679261
 21
176.159147
 31
0.0
  0
ARC
  5
CB
330
30
100
AcDbEntity
  8
LC-001-111-----0
 62
   253
370
    25
100
AcDbCircle
 10
1019.845603
 20
176.159147
 30
0.0
 40
17.50999999999996
100
AcDbArc
 50
78.436322
 51
281.563678
  0
ARC
  5
CC
330
30
100
AcDbEntity
  8
LC-001-111-----0
 62
   253
370
    25
100
AcDbCircle
 10
761.412387
 20
186.963179
 30
0.0
 40
26.54367341134783
100
AcDbArc
 50
244.741378
 51
268.246912
  0
LINE
  5
CD
330
30
100
AcDbEntity
  8
LC-001-111-----0
 62
   253
370
    25
100
AcDbLine
 10
1023.355603
 20
159.004556
 30
0.0
 11
1023.355603
 21
161.174755
 31
0.0
  0
LINE
  5
CE
330
30
100
AcDbEntity
  8
LC-002-002-----0
 62
     1
370
    25
100
AcDbLine
 10
1140.855603
 20
167.206073
 30
0.0
 11
1140.855603
 21
185.112221
 31
0.0
  0
LINE
  5
CF
330
30
100
AcDbEntity
  8
LC-002-002-----0
 62
     1
370
    25
100
AcDbLine
 10
1140.855603
 20
185.112221
 30
0.0
 11
1131.902529
 21
176.159147
 31
0.0
  0
LINE
  5
D0
330
30
100
AcDbEntity
  8
LC-002-002-----0
 62
     1
370
    25
100
AcDbLine
 10
1131.902529
 20
176.159147
 30
0.0
 11
1140.855603
 21
167.206073
 31
0.0
  0
CIRCLE
  5
D1
330
30
100
AcDbEntity
  8
LC-001-111-----0
 62
   253
370
    25
100
AcDbCircle
 10
946.345603
 20
176.159147
 30
0.0
 40
13.89000000000002
  0
LINE
  5
D2
330
30
100
AcDbEntity
  8
LC-001-111-----0
 62
   253
370
    25
100
AcDbLine
 10
890.335603
 20
158.649147
 30
0.0
 11
893.855603
 21
158.649147
 31
0.0
  0
LINE
  5
D3
330
30
100
AcDbEntity
  8
LC-001-111-----0
 62
   253
370
    25
100
AcDbLine
 10
893.855603
 20
158.649147
 30
0.0
 11
893.855603
 21
193.669147
 31
0.0
  0
ARC
  5
D4
330
30
100
AcDbEntity
  8
LC-001-111-----0
 62
   253
370
    25
100
AcDbCircle
 10
758.906662
 20
168.924866
 30
0.0
 40
20.55472179307891
100
AcDbArc
 50
57.190491
 51
90.951212
  0
ARC
  5
D5
330
30
100
AcDbEntity
  8
LC-001-111-----0
 62
   253
370
    25
100
AcDbCircle
 10
761.779647
 20
167.692822
 30
0.0
 40
12.23104525444841
100
AcDbArc
 50
274.343327
 51
74.255463
  0
LINE
  5
D6
330
30
100
AcDbEntity
  8
LC-001-111-----0
 62
   253
370
    25
100
AcDbLine
 10
893.855603
 20
193.669147
 30
0.0
 11
890.335603
 21
193.669147
 31
0.0
  0
LINE
  5
D7
330
30
100
AcDbEntity
  8
LC-001-111-----0
 62
   253
370
    25
100
AcDbLine
 10
890.335603
 20
193.669147
 30
0.0
 11
890.335603
 21
158.649147
 31
0.0
  0
LINE
  5
D8
330
30
100
AcDbEntity
  8
LC-001-111-----0
 62
   253
370
    25
100
AcDbLine
 10
890.335603
 20
176.159147
 30
0.0
 11
869.355603
 21
176.159147
 31
0.0
  0
LINE
  5
D9
330
30
100
AcDbEntity
  8
LC-001-111-----0
 62
   253
370
    25
100
AcDbLine
 10
869.355603
 20
158.649147
 30
0.0
 11
869.355603
 21
193.669147
 31
0.0
  0
LINE
  5
DA
330
30
100
AcDbEntity
  8
LC-001-111-----0
 62
   253
370
    25
100
AcDbLine
 10
869.355603
 20
193.669147
 30
0.0
 11
865.835603
 21
193.669147
 31
0.0
  0
LINE
  5
DB
330
30
100
AcDbEntity
  8
LC-001-111-----0
 62
   253
370
    25
100
AcDbLine
 10
865.835603
 20
193.669147
 30
0.0
 11
865.835603
 21
158.649147
 31
0.0
  0
LINE
  5
DC
330
30
100
AcDbEntity
  8
LC-001-111-----0
 62
   253
370
    25
100
AcDbLine
 10
867.595603
 20
192.169147
 30
0.0
 11
867.595603
 21
160.149147
 31
0.0
  0
CIRCLE
  5
DD
330
30
100
AcDbEntity
  8
LC-001-111-----0
 62
   253
370
    25
100
AcDbCircle
 10
946.345603
 20
176.159147
 30
0.0
 40
15.38999999999984
  0
LINE
  5
DE
330
30
100
AcDbEntity
  8
LC-001-111-----0
 62
   253
370
    25
100
AcDbLine
 10
1072.679261
 20
176.159147
 30
0.0
 11
1088.520928
 21
157.149147
 31
0.0
  0
LINE
  5
DF
330
30
100
AcDbEntity
  8
LC-001-111-----0
 62
   253
370
    25
100
AcDbLine
 10
1088.520928
 20
157.149147
 30
0.0
 11
1096.09687
 21
157.149147
 31
0.0
  0
LINE
  5
E0
330
30
100
AcDbEntity
  8
LC-001-111-----0
 62
   253
370
    25
100
AcDbLine
 10
1096.09687
 20
157.149147
 30
0.0
 11
1080.255204
 21
176.159147
 31
0.0
  0
LINE
  5
E1
330
30
100
AcDbEntity
  8
LC-001-111-----0
 62
   253
370
    25
100
AcDbLine
 10
770.044191
 20
186.20063
 30
0.0
 11
770.044191
 21
193.903002
 31
0.0
  0
ARC
  5
E2
330
30
100
AcDbEntity
  8
LC-001-111-----0
 62
   253
370
    25
100
AcDbCircle
 10
761.412387
 20
186.963179
 30
0.0
 40
23.54367341134796
100
AcDbArc
 50
232.518913
 51
268.246912
  0
ARC
  5
E3
330
30
100
AcDbEntity
  8
LC-001-111-----0
 62
   253
370
    25
100
AcDbCircle
 10
760.836588
 20
168.15034
 30
0.0
 40
4.722024781007908
100
AcDbArc
 50
268.246912
 51
72.731329
  0
LINE
  5
E4
330
30
100
AcDbEntity
  8
LC-001-111-----0
 62
   253
370
    25
100
AcDbLine
 10
757.542274
 20
181.595277
 30
0.0
 11
765.098525
 21
179.464972
 31
0.0
  0
ARC
  5
E5
330
30
100
AcDbEntity
  8
LC-001-111-----0
 62
   253
370
    25
100
AcDbCircle
 10
758.632108
 20
185.460948
 30
0.0
 40
4.016360130100384
100
AcDbArc
 50
90.951212
 51
254.255463
  0
ARC
  5
E6
330
30
100
AcDbEntity
  8
LC-001-111-----0
 62
   253
370
    25
100
AcDbCircle
 10
758.032826
 20
185.671748
 30
0.0
 40
11.17727081470983
100
AcDbArc
 50
94.48185
 51
252.731329
  0
LINE
  5
E7
330
30
100
AcDbEntity
  8
LC-001-111-----0
 62
   253
370
    25
100
AcDbLine
 10
762.238334
 20
172.659511
 30
0.0
 11
754.714822
 21
174.998312
 31
0.0
  0
LINE
  5
E8
330
30
100
AcDbEntity
  8
LC-001-111-----0
 62
   253
370
    25
100
AcDbLine
 10
747.086073
 20
168.279997
 30
0.0
 11
747.086073
 21
159.524163
 31
0.0
  0
ARC
  5
E9
330
30
100
AcDbEntity
  8
LC-001-111-----0
 62
   253
370
    25
100
AcDbCircle
 10
758.903191
 20
174.567744
 30
0.0
 40
22.31533311668187
100
AcDbArc
 50
60.049399
 51
94.48185
  0
ARC
  5
EA
330
30
100
AcDbEntity
  8
LC-001-111-----0
 62
   253
370
    25
100
AcDbCircle
 10
760.81067
 20
180.45076
 30
0.0
 40
25.02572762426604
100
AcDbArc
 50
236.741348
 51
274.343327
  0
LINE
  5
EB
330
30
100
AcDbEntity
  8
LC-001-111-----0
 62
   253
370
    25
100
AcDbLine
 10
1080.255204
 20
176.159147
 30
0.0
 11
1096.09687
 21
195.169147
 31
0.0
  0
LINE
  5
EC
330
30
100
AcDbEntity
  8
LC-001-111-----0
 62
   253
370
    25
100
AcDbLine
 10
750.086073
 20
162.957321
 30
0.0
 11
750.086073
 21
161.212369
 31
0.0
  0
LINE
  5
ED
330
30
100
AcDbEntity
  8
LC-001-111-----0
 62
   253
370
    25
100
AcDbLine
 10
1078.302641
 20
176.159147
 30
0.0
 11
1092.894308
 21
193.669147
 31
0.0
  0
LINE
  5
EE
330
30
100
AcDbEntity
  8
LC-002-002-----0
 62
     1
370
    25
100
AcDbLine
 10
1139.355603
 20
170.827393
 30
0.0
 11
1139.355603
 21
181.490901
 31
0.0
  0
LINE
  5
EF
330
30
100
AcDbEntity
  8
LC-002-002-----0
 62
     1
370
    25
100
AcDbLine
 10
1139.355603
 20
181.490901
 30
0.0
 11
1134.023849
 21
176.159147
 31
0.0
  0
LINE
  5
F0
330
30
100
AcDbEntity
  8
LC-002-002-----0
 62
     1
370
    25
100
AcDbLine
 10
1134.023849
 20
176.159147
 30
0.0
 11
1139.355603
 21
170.827393
 31
0.0
  0
LINE
  5
F1
330
30
100
AcDbEntity
  8
LC-002-002-----0
 62
     1
370
    25
100
AcDbLine
 10
1137.855603
 20
174.448713
 30
0.0
 11
1137.855603
 21
177.869581
 31
0.0
  0
LINE
  5
F2
330
30
100
AcDbEntity
  8
LC-002-002-----0
 62
     1
370
    25
100
AcDbLine
 10
1137.855603
 20
177.869581
 30
0.0
 11
1136.145169
 21
176.159147
 31
0.0
  0
LINE
  5
F3
330
30
100
AcDbEntity
  8
LC-002-002-----0
 62
     1
370
    25
100
AcDbLine
 10
1136.145169
 20
176.159147
 30
0.0
 11
1137.855603
 21
174.448713
 31
0.0
  0
LINE
  5
F4
330
30
100
AcDbEntity
  8
LC-001-111-----0
 62
   253
370
    25
100
AcDbLine
 10
1092.894308
 20
193.669147
 30
0.0
 11
1089.22349
 21
193.669147
 31
0.0
  0
LINE
  5
F5
330
30
100
AcDbEntity
  8
LC-001-111-----0
 62
   253
370
    25
100
AcDbLine
 10
1089.22349
 20
193.669147
 30
0.0
 11
1074.631824
 21
176.159147
 31
0.0
  0
ARC
  5
F6
330
30
100
AcDbEntity
  8
LC-001-111-----0
 62
   253
370
    25
100
AcDbCircle
 10
1019.845603
 20
176.159147
 30
0.0
 40
15.38999999999992
100
AcDbArc
 50
76.816519
 51
283.183481
  0
LINE
  5
F7
330
30
100
AcDbEntity
  8
LC-001-111-----0
 62
   253
370
    25
100
AcDbLine
 10
1074.631824
 20
176.159147
 30
0.0
 11
1089.22349
 21
158.649147
 31
0.0
  0
LINE
  5
F8
330
30
100
AcDbEntity
  8
LC-001-111-----0
 62
   253
370
    25
100
AcDbLine
 10
1089.22349
 20
158.649147
 30
0.0
 11
1092.894308
 21
158.649147
 31
0.0
  0
LINE
  5
F9
330
30
100
AcDbEntity
  8
LC-001-111-----0
 62
   253
370
    25
100
AcDbLine
 10
1092.894308
 20
158.649147
 30
0.0
 11
1078.302641
 21
176.159147
 31
0.0
  0
LINE
  5
FA
330
30
100
AcDbEntity
  8
LC-001-111-----0
 62
   253
370
    25
100
AcDbLine
 10
1076.467232
 20
176.159147
 30
0.0
 11
1090.098623
 21
192.516815
 31
0.0
  0
LINE
  5
FB
330
30
100
AcDbEntity
  8
LC-001-111-----0
 62
   253
370
    25
100
AcDbLine
 10
1076.467232
 20
176.159147
 30
0.0
 11
1090.098623
 21
159.801479
 31
0.0
  0
ARC
  5
FC
330
30
100
AcDbEntity
  8
LC-001-111-----0
 62
   253
370
    25
100
AcDbCircle
 10
760.81067
 20
180.45076
 30
0.0
 40
22.02572762426587
100
AcDbArc
 50
240.862164
 51
274.343327
  0
ARC
  5
FD
330
30
100
AcDbEntity
  8
LC-001-111-----0
 62
   253
370
    25
100
AcDbCircle
 10
761.779647
 20
167.692822
 30
0.0
 40
9.231045254448425
100
AcDbArc
 50
274.343327
 51
74.255463
  0
LINE
  5
FE
330
30
100
AcDbEntity
  8
LC-001-111-----0
 62
   253
370
    25
100
AcDbLine
 10
764.284479
 20
176.577529
 30
0.0
 11
756.728228
 21
178.707834
 31
0.0
  0
ARC
  5
FF
330
30
100
AcDbEntity
  8
LC-001-111-----0
 62
   253
370
    25
100
AcDbCircle
 10
758.632108
 20
185.460948
 30
0.0
 40
7.016360130100396
100
AcDbArc
 50
90.951212
 51
254.255463
  0
ARC
  5
100
330
30
100
AcDbEntity
  8
LC-001-111-----0
 62
   253
370
    25
100
AcDbCircle
 10
758.906662
 20
168.924866
 30
0.0
 40
23.55472179307856
100
AcDbArc
 50
69.789306
 51
90.951212
  0
LINE
  5
101
330
30
100
AcDbEntity
  8
LC-001-111-----0
 62
   253
370
    25
100
AcDbLine
 10
767.044191
 20
191.029289
 30
0.0
 11
767.044191
 21
192.083629
 31
0.0
  0
ENDBLK
  5
32
330
30
100
AcDbEntity
  8
0
100
AcDbBlockEnd
  0
BLOCK
  5
202
330
201
100
AcDbEntity
  8
0
100
AcDbBlockBegin
  2
*X12
 70
     1
 71
     0
 10
0.0
 20
0.0
 30
0.0
  3
*X12
  1

  4
*X1
  0
LINE
  5
205
330
201
100
AcDbEntity
  8
LC-006-005-----0
 62
     7
370
    25
100
AcDbLine
 10
1023.082922
 20
2437.296484
 30
0.0
 11
1037.311186
 21
2451.524748
 31
0.0
  0
LINE
  5
206
330
201
100
AcDbEntity
  8
LC-006-005-----0
 62
     7
370
    25
100
AcDbLine
 10
994.798651
 20
2437.296484
 30
0.0
 11
1022.798651
 21
2465.296484
 31
0.0
  0
LINE
  5
207
330
201
100
AcDbEntity
  8
LC-006-005-----0
 62
     7
370
    25
100
AcDbLine
 10
966.51438
 20
2437.296484
 30
0.0
 11
994.51438
 21
2465.296484
 31
0.0
  0
LINE
  5
208
330
201
100
AcDbEntity
  8
LC-006-005-----0
 62
     7
370
    25
100
AcDbLine
 10
962.666717
 20
2461.733094
 30
0.0
 11
966.230108
 21
2465.296484
 31
0.0
  0
LINE
  5
209
330
201
100
AcDbEntity
  8
LC-006-005-----0
 62
     7
370
    25
100
AcDbLine
 10
627.103125
 20
2437.296484
 30
0.0
 11
634.053962
 21
2444.247322
 31
0.0
  0
LINE
  5
20A
330
201
100
AcDbEntity
  8
LC-006-005-----0
 62
     7
370
    25
100
AcDbLine
 10
598.818853
 20
2437.296484
 30
0.0
 11
626.818853
 21
2465.296484
 31
0.0
  0
LINE
  5
20B
330
201
100
AcDbEntity
  8
LC-006-005-----0
 62
     7
370
    25
100
AcDbLine
 10
570.534582
 20
2437.296484
 30
0.0
 11
598.534582
 21
2465.296484
 31
0.0
  0
LINE
  5
20C
330
201
100
AcDbEntity
  8
LC-006-005-----0
 62
     7
370
    25
100
AcDbLine
 10
557.47851
 20
2452.524684
 30
0.0
 11
570.250311
 21
2465.296484
 31
0.0
  0
ENDBLK
  5
203
330
201
100
AcDbEntity
  8
0
100
AcDbBlockEnd
  0
BLOCK
  5
284
330
283
100
AcDbEntity
  8
0
100
AcDbBlockBegin
  2
POLY1
 70
     0
 71
     0
 10
0.0
 20
0.0
 30
0.0
  3
POLY1
  1

  4
POLY1
  0
LINE
  5
286
330
283
100
AcDbEntity
  8
LC-002-002-----0
 62
     7
370
    25
100
AcDbLine
 10
1497.533258
 20
1970.435693
 30
0.0
 11
1497.508242
 21
1970.410653
 31
0.0
  0
ENDBLK
  5
285
330
283
100
AcDbEntity
  8
0
100
AcDbBlockEnd
  0
BLOCK
  5
298
330
297
100
AcDbEntity
  8
0
100
AcDbBlockBegin
  2
POLY2
 70
     0
 71
     0
 10
0.0
 20
0.0
 30
0.0
  3
POLY2
  1

  4
POLY2
  0
LINE
  5
29A
330
297
100
AcDbEntity
  8
LC-002-002-----0
 62
     7
370
    25
100
AcDbLine
 10
1540.720723
 20
1913.03
 30
0.0
 11
1540.720723
 21
1913.03
 31
0.0
  0
LINE
  5
29B
330
297
100
AcDbEntity
  8
LC-002-002-----0
 62
     7
370
    25
100
AcDbLine
 10
1540.720723
 20
1913.03
 30
0.0
 11
1540.661785
 21
1913.544773
 31
0.0
  0
LINE
  5
29C
330
297
100
AcDbEntity
  8
LC-002-002-----0
 62
     7
370
    25
100
AcDbLine
 10
1540.661785
 20
1913.544773
 30
0.0
 11
1540.661785
 21
1913.544773
 31
0.0
  0
LINE
  5
29D
330
297
100
AcDbEntity
  8
LC-002-002-----0
 62
     7
370
    25
100
AcDbLine
 10
1540.661785
 20
1913.544773
 30
0.0
 11
1540.48824
 21
1914.026131
 31
0.0
  0
LINE
  5
29E
330
297
100
AcDbEntity
  8
LC-002-002-----0
 62
     7
370
    25
100
AcDbLine
 10
1540.48824
 20
1914.026131
 30
0.0
 11
1540.48824
 21
1914.026131
 31
0.0
  0
LINE
  5
29F
330
297
100
AcDbEntity
  8
LC-002-002-----0
 62
     7
370
    25
100
AcDbLine
 10
1540.48824
 20
1914.026131
 30
0.0
 11
1540.212104
 21
1914.439698
 31
0.0
  0
LINE
  5
2A0
330
297
100
AcDbEntity
  8
LC-002-002-----0
 62
     7
370
    25
100
AcDbLine
 10
1540.212104
 20
1914.439698
 30
0.0
 11
1540.212104
 21
1914.439698
 31
0.0
  0
LINE
  5
2A1
330
297
100
AcDbEntity
  8
LC-002-002-----0
 62
     7
370
    25
100
AcDbLine
 10
1540.212104
 20
1914.439698
 30
0.0
 11
1539.850759
 21
1914.758644
 31
0.0
  0
LINE
  5
2A2
330
297
100
AcDbEntity
  8
LC-002-002-----0
 62
     7
370
    25
100
AcDbLine
 10
1539.850759
 20
1914.758644
 30
0.0
 11
1539.850759
 21
1914.758644
 31
0.0
  0
LINE
  5
2A3
330
297
100
AcDbEntity
  8
LC-002-002-----0
 62
     7
370
    25
100
AcDbLine
 10
1539.850759
 20
1914.758644
 30
0.0
 11
1539.427372
 21
1914.960607
 31
0.0
  0
LINE
  5
2A4
330
297
100
AcDbEntity
  8
LC-002-002-----0
 62
     7
370
    25
100
AcDbLine
 10
1539.427372
 20
1914.960607
 30
0.0
 11
1539.427372
 21
1914.960607
 31
0.0
  0
LINE
  5
2A5
330
297
100
AcDbEntity
  8
LC-002-002-----0
 62
     7
370
    25
100
AcDbLine
 10
1539.427372
 20
1914.960607
 30
0.0
 11
1538.96989
 21
1915.03
 31
0.0
  0
ENDBLK
  5
299
330
297
100
AcDbEntity
  8
0
100
AcDbBlockEnd
  0
BLOCK
  5
2A9
330
2A8
100
AcDbEntity
  8
0
100
AcDbBlockBegin
  2
POLY3
 70
     0
 71
     0
 10
0.0
 20
0.0
 30
0.0
  3
POLY3
  1

  4
POLY3
  0
LINE
  5
2AB
330
2A8
100
AcDbEntity
  8
LC-002-002-----0
 62
     7
370
    25
100
AcDbLine
 10
1517.508242
 20
1913.03
 30
0.0
 11
1517.508242
 21
1913.03
 31
0.0
  0
LINE
  5
2AC
330
2A8
100
AcDbEntity
  8
LC-002-002-----0
 62
     7
370
    25
100
AcDbLine
 10
1517.508242
 20
1913.03
 30
0.0
 11
1517.508276
 21
1913.544788
 31
0.0
  0
LINE
  5
2AD
330
2A8
100
AcDbEntity
  8
LC-002-002-----0
 62
     7
370
    25
100
AcDbLine
 10
1517.508276
 20
1913.544788
 30
0.0
 11
1517.508276
 21
1913.544788
 31
0.0
  0
LINE
  5
2AE
330
2A8
100
AcDbEntity
  8
LC-002-002-----0
 62
     7
370
    25
100
AcDbLine
 10
1517.508276
 20
1913.544788
 30
0.0
 11
1517.508239
 21
1914.026158
 31
0.0
  0
LINE
  5
2AF
330
2A8
100
AcDbEntity
  8
LC-002-002-----0
 62
     7
370
    25
100
AcDbLine
 10
1517.508239
 20
1914.026158
 30
0.0
 11
1517.508239
 21
1914.026158
 31
0.0
  0
LINE
  5
2B0
330
2A8
100
AcDbEntity
  8
LC-002-002-----0
 62
     7
370
    25
100
AcDbLine
 10
1517.508239
 20
1914.026158
 30
0.0
 11
1517.508246
 21
1914.439728
 31
0.0
  0
LINE
  5
2B1
330
2A8
100
AcDbEntity
  8
LC-002-002-----0
 62
     7
370
    25
100
AcDbLine
 10
1517.508246
 20
1914.439728
 30
0.0
 11
1517.508246
 21
1914.439728
 31
0.0
  0
LINE
  5
2B2
330
2A8
100
AcDbEntity
  8
LC-002-002-----0
 62
     7
370
    25
100
AcDbLine
 10
1517.508246
 20
1914.439728
 30
0.0
 11
1517.50822
 21
1914.758665
 31
0.0
  0
LINE
  5
2B3
330
2A8
100
AcDbEntity
  8
LC-002-002-----0
 62
     7
370
    25
100
AcDbLine
 10
1517.50822
 20
1914.758665
 30
0.0
 11
1517.50822
 21
1914.758665
 31
0.0
  0
LINE
  5
2B4
330
2A8
100
AcDbEntity
  8
LC-002-002-----0
 62
     7
370
    25
100
AcDbLine
 10
1517.50822
 20
1914.758665
 30
0.0
 11
1517.508269
 21
1914.960621
 31
0.0
  0
LINE
  5
2B5
330
2A8
100
AcDbEntity
  8
LC-002-002-----0
 62
     7
370
    25
100
AcDbLine
 10
1517.508269
 20
1914.960621
 30
0.0
 11
1517.508269
 21
1914.960621
 31
0.0
  0
LINE
  5
2B6
330
2A8
100
AcDbEntity
  8
LC-002-002-----0
 62
     7
370
    25
100
AcDbLine
 10
1517.508269
 20
1914.960621
 30
0.0
 11
1517.508251
 21
1915.03
 31
0.0
  0
ENDBLK
  5
2AA
330
2A8
100
AcDbEntity
  8
0
100
AcDbBlockEnd
  0
BLOCK
  5
2BA
330
2B9
100
AcDbEntity
  8
0
100
AcDbBlockBegin
  2
POLY4
 70
     0
 71
     0
 10
0.0
 20
0.0
 30
0.0
  3
POLY4
  1

  4
POLY4
  0
LINE
  5
2BC
330
2B9
100
AcDbEntity
  8
LC-002-002-----0
 62
     7
370
    25
100
AcDbLine
 10
1494.295761
 20
1913.03
 30
0.0
 11
1494.295761
 21
1913.03
 31
0.0
  0
LINE
  5
2BD
330
2B9
100
AcDbEntity
  8
LC-002-002-----0
 62
     7
370
    25
100
AcDbLine
 10
1494.295761
 20
1913.03
 30
0.0
 11
1494.354699
 21
1913.544773
 31
0.0
  0
LINE
  5
2BE
330
2B9
100
AcDbEntity
  8
LC-002-002-----0
 62
     7
370
    25
100
AcDbLine
 10
1494.354699
 20
1913.544773
 30
0.0
 11
1494.354699
 21
1913.544773
 31
0.0
  0
LINE
  5
2BF
330
2B9
100
AcDbEntity
  8
LC-002-002-----0
 62
     7
370
    25
100
AcDbLine
 10
1494.354699
 20
1913.544773
 30
0.0
 11
1494.528245
 21
1914.026131
 31
0.0
  0
LINE
  5
2C0
330
2B9
100
AcDbEntity
  8
LC-002-002-----0
 62
     7
370
    25
100
AcDbLine
 10
1494.528245
 20
1914.026131
 30
0.0
 11
1494.528245
 21
1914.026131
 31
0.0
  0
LINE
  5
2C1
330
2B9
100
AcDbEntity
  8
LC-002-002-----0
 62
     7
370
    25
100
AcDbLine
 10
1494.528245
 20
1914.026131
 30
0.0
 11
1494.80438
 21
1914.439698
 31
0.0
  0
LINE
  5
2C2
330
2B9
100
AcDbEntity
  8
LC-002-002-----0
 62
     7
370
    25
100
AcDbLine
 10
1494.80438
 20
1914.439698
 30
0.0
 11
1494.80438
 21
1914.439698
 31
0.0
  0
LINE
  5
2C3
330
2B9
100
AcDbEntity
  8
LC-002-002-----0
 62
     7
370
    25
100
AcDbLine
 10
1494.80438
 20
1914.439698
 30
0.0
 11
1495.165726
 21
1914.758644
 31
0.0
  0
LINE
  5
2C4
330
2B9
100
AcDbEntity
  8
LC-002-002-----0
 62
     7
370
    25
100
AcDbLine
 10
1495.165726
 20
1914.758644
 30
0.0
 11
1495.165726
 21
1914.758644
 31
0.0
  0
LINE
  5
2C5
330
2B9
100
AcDbEntity
  8
LC-002-002-----0
 62
     7
370
    25
100
AcDbLine
 10
1495.165726
 20
1914.758644
 30
0.0
 11
1495.589113
 21
1914.960607
 31
0.0
  0
LINE
  5
2C6
330
2B9
100
AcDbEntity
  8
LC-002-002-----0
 62
     7
370
    25
100
AcDbLine
 10
1495.589113
 20
1914.960607
 30
0.0
 11
1495.589113
 21
1914.960607
 31
0.0
  0
LINE
  5
2C7
330
2B9
100
AcDbEntity
  8
LC-002-002-----0
 62
     7
370
    25
100
AcDbLine
 10
1495.589113
 20
1914.960607
 30
0.0
 11
1496.046595
 21
1915.03
 31
0.0
  0
ENDBLK
  5
2BB
330
2B9
100
AcDbEntity
  8
0
100
AcDbBlockEnd
  0
BLOCK
  5
307
330
306
100
AcDbEntity
  8
0
100
AcDbBlockBegin
  2
POLY5
 70
     0
 71
     0
 10
0.0
 20
0.0
 30
0.0
  3
POLY5
  1

  4
POLY5
  0
LINE
  5
309
330
306
100
AcDbEntity
  8
LC-002-002-----0
 62
     7
370
    25
100
AcDbLine
 10
1719.28338
 20
1950.04835
 30
0.0
 11
1719.28338
 21
1950.04835
 31
0.0
  0
LINE
  5
30A
330
306
100
AcDbEntity
  8
LC-002-002-----0
 62
     7
370
    25
100
AcDbLine
 10
1719.28338
 20
1950.04835
 30
0.0
 11
1719.069198
 21
1950.003441
 31
0.0
  0
LINE
  5
30B
330
306
100
AcDbEntity
  8
LC-002-002-----0
 62
     7
370
    25
100
AcDbLine
 10
1719.069198
 20
1950.003441
 30
0.0
 11
1719.069198
 21
1950.003441
 31
0.0
  0
LINE
  5
30C
330
306
100
AcDbEntity
  8
LC-002-002-----0
 62
     7
370
    25
100
AcDbLine
 10
1719.069198
 20
1950.003441
 30
0.0
 11
1718.855543
 21
1949.926633
 31
0.0
  0
LINE
  5
30D
330
306
100
AcDbEntity
  8
LC-002-002-----0
 62
     7
370
    25
100
AcDbLine
 10
1718.855543
 20
1949.926633
 30
0.0
 11
1718.855543
 21
1949.926633
 31
0.0
  0
LINE
  5
30E
330
306
100
AcDbEntity
  8
LC-002-002-----0
 62
     7
370
    25
100
AcDbLine
 10
1718.855543
 20
1949.926633
 30
0.0
 11
1718.651751
 21
1949.82652
 31
0.0
  0
LINE
  5
30F
330
306
100
AcDbEntity
  8
LC-002-002-----0
 62
     7
370
    25
100
AcDbLine
 10
1718.651751
 20
1949.82652
 30
0.0
 11
1718.651751
 21
1949.82652
 31
0.0
  0
LINE
  5
310
330
306
100
AcDbEntity
  8
LC-002-002-----0
 62
     7
370
    25
100
AcDbLine
 10
1718.651751
 20
1949.82652
 30
0.0
 11
1718.459681
 21
1949.708563
 31
0.0
  0
LINE
  5
311
330
306
100
AcDbEntity
  8
LC-002-002-----0
 62
     7
370
    25
100
AcDbLine
 10
1718.459681
 20
1949.708563
 30
0.0
 11
1718.459681
 21
1949.708563
 31
0.0
  0
LINE
  5
312
330
306
100
AcDbEntity
  8
LC-002-002-----0
 62
     7
370
    25
100
AcDbLine
 10
1718.459681
 20
1949.708563
 30
0.0
 11
1718.28221
 21
1949.579139
 31
0.0
  0
LINE
  5
313
330
306
100
AcDbEntity
  8
LC-002-002-----0
 62
     7
370
    25
100
AcDbLine
 10
1718.28221
 20
1949.579139
 30
0.0
 11
1718.28221
 21
1949.579139
 31
0.0
  0
LINE
  5
314
330
306
100
AcDbEntity
  8
LC-002-002-----0
 62
     7
370
    25
100
AcDbLine
 10
1718.28221
 20
1949.579139
 30
0.0
 11
1718.118429
 21
1949.440511
 31
0.0
  0
LINE
  5
315
330
306
100
AcDbEntity
  8
LC-002-002-----0
 62
     7
370
    25
100
AcDbLine
 10
1718.118429
 20
1949.440511
 30
0.0
 11
1718.118429
 21
1949.440511
 31
0.0
  0
LINE
  5
316
330
306
100
AcDbEntity
  8
LC-002-002-----0
 62
     7
370
    25
100
AcDbLine
 10
1718.118429
 20
1949.440511
 30
0.0
 11
1717.968779
 21
1949.294034
 31
0.0
  0
LINE
  5
317
330
306
100
AcDbEntity
  8
LC-002-002-----0
 62
     7
370
    25
100
AcDbLine
 10
1717.968779
 20
1949.294034
 30
0.0
 11
1717.968779
 21
1949.294034
 31
0.0
  0
LINE
  5
318
330
306
100
AcDbEntity
  8
LC-002-002-----0
 62
     7
370
    25
100
AcDbLine
 10
1717.968779
 20
1949.294034
 30
0.0
 11
1717.834828
 21
1949.141957
 31
0.0
  0
LINE
  5
319
330
306
100
AcDbEntity
  8
LC-002-002-----0
 62
     7
370
    25
100
AcDbLine
 10
1717.834828
 20
1949.141957
 30
0.0
 11
1717.834828
 21
1949.141957
 31
0.0
  0
LINE
  5
31A
330
306
100
AcDbEntity
  8
LC-002-002-----0
 62
     7
370
    25
100
AcDbLine
 10
1717.834828
 20
1949.141957
 30
0.0
 11
1717.718617
 21
1948.987915
 31
0.0
  0
LINE
  5
31B
330
306
100
AcDbEntity
  8
LC-002-002-----0
 62
     7
370
    25
100
AcDbLine
 10
1717.718617
 20
1948.987915
 30
0.0
 11
1717.718617
 21
1948.987915
 31
0.0
  0
LINE
  5
31C
330
306
100
AcDbEntity
  8
LC-002-002-----0
 62
     7
370
    25
100
AcDbLine
 10
1717.718617
 20
1948.987915
 30
0.0
 11
1717.622025
 21
1948.836852
 31
0.0
  0
ENDBLK
  5
308
330
306
100
AcDbEntity
  8
0
100
AcDbBlockEnd
  0
BLOCK
  5
31F
330
31E
100
AcDbEntity
  8
0
100
AcDbBlockBegin
  2
POLY6
 70
     0
 71
     0
 10
0.0
 20
0.0
 30
0.0
  3
POLY6
  1

  4
POLY6
  0
LINE
  5
321
330
31E
100
AcDbEntity
  8
LC-002-002-----0
 62
     7
370
    25
100
AcDbLine
 10
1717.297787
 20
1948.293285
 30
0.0
 11
1717.297787
 21
1948.293285
 31
0.0
  0
LINE
  5
322
330
31E
100
AcDbEntity
  8
LC-002-002-----0
 62
     7
370
    25
100
AcDbLine
 10
1717.297787
 20
1948.293285
 30
0.0
 11
1717.334365
 21
1948.353385
 31
0.0
  0
LINE
  5
323
330
31E
100
AcDbEntity
  8
LC-002-002-----0
 62
     7
370
    25
100
AcDbLine
 10
1717.334365
 20
1948.353385
 30
0.0
 11
1717.334365
 21
1948.353385
 31
0.0
  0
LINE
  5
324
330
31E
100
AcDbEntity
  8
LC-002-002-----0
 62
     7
370
    25
100
AcDbLine
 10
1717.334365
 20
1948.353385
 30
0.0
 11
1717.44313
 21
1948.534454
 31
0.0
  0
LINE
  5
325
330
31E
100
AcDbEntity
  8
LC-002-002-----0
 62
     7
370
    25
100
AcDbLine
 10
1717.44313
 20
1948.534454
 30
0.0
 11
1717.44313
 21
1948.534454
 31
0.0
  0
LINE
  5
326
330
31E
100
AcDbEntity
  8
LC-002-002-----0
 62
     7
370
    25
100
AcDbLine
 10
1717.44313
 20
1948.534454
 30
0.0
 11
1717.622025
 21
1948.836852
 31
0.0
  0
ENDBLK
  5
320
330
31E
100
AcDbEntity
  8
0
100
AcDbBlockEnd
  0
BLOCK
  5
329
330
328
100
AcDbEntity
  8
0
100
AcDbBlockBegin
  2
POLY7
 70
     0
 71
     0
 10
0.0
 20
0.0
 30
0.0
  3
POLY7
  1

  4
POLY7
  0
LINE
  5
32B
330
328
100
AcDbEntity
  8
LC-002-002-----0
 62
     7
370
    25
100
AcDbLine
 10
1711.655146
 20
1965.676266
 30
0.0
 11
1711.655146
 21
1965.676266
 31
0.0
  0
LINE
  5
32C
330
328
100
AcDbEntity
  8
LC-002-002-----0
 62
     7
370
    25
100
AcDbLine
 10
1711.655146
 20
1965.676266
 30
0.0
 11
1711.530071
 21
1965.690979
 31
0.0
  0
LINE
  5
32D
330
328
100
AcDbEntity
  8
LC-002-002-----0
 62
     7
370
    25
100
AcDbLine
 10
1711.530071
 20
1965.690979
 30
0.0
 11
1711.530071
 21
1965.690979
 31
0.0
  0
LINE
  5
32E
330
328
100
AcDbEntity
  8
LC-002-002-----0
 62
     7
370
    25
100
AcDbLine
 10
1711.530071
 20
1965.690979
 30
0.0
 11
1711.470998
 21
1965.694251
 31
0.0
  0
LINE
  5
32F
330
328
100
AcDbEntity
  8
LC-002-002-----0
 62
     7
370
    25
100
AcDbLine
 10
1711.470998
 20
1965.694251
 30
0.0
 11
1711.470998
 21
1965.694251
 31
0.0
  0
LINE
  5
330
330
328
100
AcDbEntity
  8
LC-002-002-----0
 62
     7
370
    25
100
AcDbLine
 10
1711.470998
 20
1965.694251
 30
0.0
 11
1711.411843
 21
1965.69519
 31
0.0
  0
LINE
  5
331
330
328
100
AcDbEntity
  8
LC-002-002-----0
 62
     7
370
    25
100
AcDbLine
 10
1711.411843
 20
1965.69519
 30
0.0
 11
1711.411843
 21
1965.69519
 31
0.0
  0
LINE
  5
332
330
328
100
AcDbEntity
  8
LC-002-002-----0
 62
     7
370
    25
100
AcDbLine
 10
1711.411843
 20
1965.69519
 30
0.0
 11
1711.352697
 21
1965.693797
 31
0.0
  0
LINE
  5
333
330
328
100
AcDbEntity
  8
LC-002-002-----0
 62
     7
370
    25
100
AcDbLine
 10
1711.352697
 20
1965.693797
 30
0.0
 11
1711.352697
 21
1965.693797
 31
0.0
  0
LINE
  5
334
330
328
100
AcDbEntity
  8
LC-002-002-----0
 62
     7
370
    25
100
AcDbLine
 10
1711.352697
 20
1965.693797
 30
0.0
 11
1711.293651
 21
1965.690071
 31
0.0
  0
LINE
  5
335
330
328
100
AcDbEntity
  8
LC-002-002-----0
 62
     7
370
    25
100
AcDbLine
 10
1711.293651
 20
1965.690071
 30
0.0
 11
1711.293651
 21
1965.690071
 31
0.0
  0
LINE
  5
336
330
328
100
AcDbEntity
  8
LC-002-002-----0
 62
     7
370
    25
100
AcDbLine
 10
1711.293651
 20
1965.690071
 30
0.0
 11
1711.234799
 21
1965.684021
 31
0.0
  0
LINE
  5
337
330
328
100
AcDbEntity
  8
LC-002-002-----0
 62
     7
370
    25
100
AcDbLine
 10
1711.234799
 20
1965.684021
 30
0.0
 11
1711.234799
 21
1965.684021
 31
0.0
  0
LINE
  5
338
330
328
100
AcDbEntity
  8
LC-002-002-----0
 62
     7
370
    25
100
AcDbLine
 10
1711.234799
 20
1965.684021
 30
0.0
 11
1710.96677
 21
1965.625741
 31
0.0
  0
ENDBLK
  5
32A
330
328
100
AcDbEntity
  8
0
100
AcDbBlockEnd
  0
BLOCK
  5
33B
330
33A
100
AcDbEntity
  8
0
100
AcDbBlockBegin
  2
POLY8
 70
     0
 71
     0
 10
0.0
 20
0.0
 30
0.0
  3
POLY8
  1

  4
POLY8
  0
LINE
  5
33D
330
33A
100
AcDbEntity
  8
LC-002-002-----0
 62
     7
370
    25
100
AcDbLine
 10
1589.833014
 20
1957.480711
 30
0.0
 11
1589.833014
 21
1957.480711
 31
0.0
  0
LINE
  5
33E
330
33A
100
AcDbEntity
  8
LC-002-002-----0
 62
     7
370
    25
100
AcDbLine
 10
1589.833014
 20
1957.480711
 30
0.0
 11
1589.833051
 21
1957.335727
 31
0.0
  0
LINE
  5
33F
330
33A
100
AcDbEntity
  8
LC-002-002-----0
 62
     7
370
    25
100
AcDbLine
 10
1589.833051
 20
1957.335727
 30
0.0
 11
1589.833051
 21
1957.335727
 31
0.0
  0
LINE
  5
340
330
33A
100
AcDbEntity
  8
LC-002-002-----0
 62
     7
370
    25
100
AcDbLine
 10
1589.833051
 20
1957.335727
 30
0.0
 11
1589.833491
 21
1956.911086
 31
0.0
  0
LINE
  5
341
330
33A
100
AcDbEntity
  8
LC-002-002-----0
 62
     7
370
    25
100
AcDbLine
 10
1589.833491
 20
1956.911086
 30
0.0
 11
1589.833491
 21
1956.911086
 31
0.0
  0
LINE
  5
342
330
33A
100
AcDbEntity
  8
LC-002-002-----0
 62
     7
370
    25
100
AcDbLine
 10
1589.833491
 20
1956.911086
 30
0.0
 11
1589.833063
 21
1956.206739
 31
0.0
  0
LINE
  5
343
330
33A
100
AcDbEntity
  8
LC-002-002-----0
 62
     7
370
    25
100
AcDbLine
 10
1589.833063
 20
1956.206739
 30
0.0
 11
1589.833063
 21
1956.206739
 31
0.0
  0
LINE
  5
344
330
33A
100
AcDbEntity
  8
LC-002-002-----0
 62
     7
370
    25
100
AcDbLine
 10
1589.833063
 20
1956.206739
 30
0.0
 11
1589.832924
 21
1955.208328
 31
0.0
  0
LINE
  5
345
330
33A
100
AcDbEntity
  8
LC-002-002-----0
 62
     7
370
    25
100
AcDbLine
 10
1589.832924
 20
1955.208328
 30
0.0
 11
1589.832924
 21
1955.208328
 31
0.0
  0
LINE
  5
346
330
33A
100
AcDbEntity
  8
LC-002-002-----0
 62
     7
370
    25
100
AcDbLine
 10
1589.832924
 20
1955.208328
 30
0.0
 11
1589.832967
 21
1953.863233
 31
0.0
  0
LINE
  5
347
330
33A
100
AcDbEntity
  8
LC-002-002-----0
 62
     7
370
    25
100
AcDbLine
 10
1589.832967
 20
1953.863233
 30
0.0
 11
1589.832967
 21
1953.863233
 31
0.0
  0
LINE
  5
348
330
33A
100
AcDbEntity
  8
LC-002-002-----0
 62
     7
370
    25
100
AcDbLine
 10
1589.832967
 20
1953.863233
 30
0.0
 11
1589.832984
 21
1952.17138
 31
0.0
  0
LINE
  5
349
330
33A
100
AcDbEntity
  8
LC-002-002-----0
 62
     7
370
    25
100
AcDbLine
 10
1589.832984
 20
1952.17138
 30
0.0
 11
1589.832984
 21
1952.17138
 31
0.0
  0
LINE
  5
34A
330
33A
100
AcDbEntity
  8
LC-002-002-----0
 62
     7
370
    25
100
AcDbLine
 10
1589.832984
 20
1952.17138
 30
0.0
 11
1589.833287
 21
1950.168075
 31
0.0
  0
LINE
  5
34B
330
33A
100
AcDbEntity
  8
LC-002-002-----0
 62
     7
370
    25
100
AcDbLine
 10
1589.833287
 20
1950.168075
 30
0.0
 11
1589.833287
 21
1950.168075
 31
0.0
  0
LINE
  5
34C
330
33A
100
AcDbEntity
  8
LC-002-002-----0
 62
     7
370
    25
100
AcDbLine
 10
1589.833287
 20
1950.168075
 30
0.0
 11
1589.833135
 21
1947.909637
 31
0.0
  0
LINE
  5
34D
330
33A
100
AcDbEntity
  8
LC-002-002-----0
 62
     7
370
    25
100
AcDbLine
 10
1589.833135
 20
1947.909637
 30
0.0
 11
1589.833135
 21
1947.909637
 31
0.0
  0
LINE
  5
34E
330
33A
100
AcDbEntity
  8
LC-002-002-----0
 62
     7
370
    25
100
AcDbLine
 10
1589.833135
 20
1947.909637
 30
0.0
 11
1589.8331
 21
1945.486707
 31
0.0
  0
LINE
  5
34F
330
33A
100
AcDbEntity
  8
LC-002-002-----0
 62
     7
370
    25
100
AcDbLine
 10
1589.8331
 20
1945.486707
 30
0.0
 11
1589.8331
 21
1945.486707
 31
0.0
  0
LINE
  5
350
330
33A
100
AcDbEntity
  8
LC-002-002-----0
 62
     7
370
    25
100
AcDbLine
 10
1589.8331
 20
1945.486707
 30
0.0
 11
1589.833102
 21
1943.004513
 31
0.0
  0
LINE
  5
351
330
33A
100
AcDbEntity
  8
LC-002-002-----0
 62
     7
370
    25
100
AcDbLine
 10
1589.833102
 20
1943.004513
 30
0.0
 11
1589.833102
 21
1943.004513
 31
0.0
  0
LINE
  5
352
330
33A
100
AcDbEntity
  8
LC-002-002-----0
 62
     7
370
    25
100
AcDbLine
 10
1589.833102
 20
1943.004513
 30
0.0
 11
1589.833152
 21
1940.59217
 31
0.0
  0
LINE
  5
353
330
33A
100
AcDbEntity
  8
LC-002-002-----0
 62
     7
370
    25
100
AcDbLine
 10
1589.833152
 20
1940.59217
 30
0.0
 11
1589.833152
 21
1940.59217
 31
0.0
  0
LINE
  5
354
330
33A
100
AcDbEntity
  8
LC-002-002-----0
 62
     7
370
    25
100
AcDbLine
 10
1589.833152
 20
1940.59217
 30
0.0
 11
1589.833288
 21
1938.353101
 31
0.0
  0
LINE
  5
355
330
33A
100
AcDbEntity
  8
LC-002-002-----0
 62
     7
370
    25
100
AcDbLine
 10
1589.833288
 20
1938.353101
 30
0.0
 11
1589.833288
 21
1938.353101
 31
0.0
  0
LINE
  5
356
330
33A
100
AcDbEntity
  8
LC-002-002-----0
 62
     7
370
    25
100
AcDbLine
 10
1589.833288
 20
1938.353101
 30
0.0
 11
1589.83299
 21
1936.371257
 31
0.0
  0
LINE
  5
357
330
33A
100
AcDbEntity
  8
LC-002-002-----0
 62
     7
370
    25
100
AcDbLine
 10
1589.83299
 20
1936.371257
 30
0.0
 11
1589.83299
 21
1936.371257
 31
0.0
  0
LINE
  5
358
330
33A
100
AcDbEntity
  8
LC-002-002-----0
 62
     7
370
    25
100
AcDbLine
 10
1589.83299
 20
1936.371257
 30
0.0
 11
1589.832976
 21
1934.696966
 31
0.0
  0
LINE
  5
359
330
33A
100
AcDbEntity
  8
LC-002-002-----0
 62
     7
370
    25
100
AcDbLine
 10
1589.832976
 20
1934.696966
 30
0.0
 11
1589.832976
 21
1934.696966
 31
0.0
  0
LINE
  5
35A
330
33A
100
AcDbEntity
  8
LC-002-002-----0
 62
     7
370
    25
100
AcDbLine
 10
1589.832976
 20
1934.696966
 30
0.0
 11
1589.832922
 21
1933.361814
 31
0.0
  0
LINE
  5
35B
330
33A
100
AcDbEntity
  8
LC-002-002-----0
 62
     7
370
    25
100
AcDbLine
 10
1589.832922
 20
1933.361814
 30
0.0
 11
1589.832922
 21
1933.361814
 31
0.0
  0
LINE
  5
35C
330
33A
100
AcDbEntity
  8
LC-002-002-----0
 62
     7
370
    25
100
AcDbLine
 10
1589.832922
 20
1933.361814
 30
0.0
 11
1589.833052
 21
1932.365879
 31
0.0
  0
LINE
  5
35D
330
33A
100
AcDbEntity
  8
LC-002-002-----0
 62
     7
370
    25
100
AcDbLine
 10
1589.833052
 20
1932.365879
 30
0.0
 11
1589.833052
 21
1932.365879
 31
0.0
  0
LINE
  5
35E
330
33A
100
AcDbEntity
  8
LC-002-002-----0
 62
     7
370
    25
100
AcDbLine
 10
1589.833052
 20
1932.365879
 30
0.0
 11
1589.83346
 21
1931.659783
 31
0.0
  0
LINE
  5
35F
330
33A
100
AcDbEntity
  8
LC-002-002-----0
 62
     7
370
    25
100
AcDbLine
 10
1589.83346
 20
1931.659783
 30
0.0
 11
1589.83346
 21
1931.659783
 31
0.0
  0
LINE
  5
360
330
33A
100
AcDbEntity
  8
LC-002-002-----0
 62
     7
370
    25
100
AcDbLine
 10
1589.83346
 20
1931.659783
 30
0.0
 11
1589.833022
 21
1931.232135
 31
0.0
  0
LINE
  5
361
330
33A
100
AcDbEntity
  8
LC-002-002-----0
 62
     7
370
    25
100
AcDbLine
 10
1589.833022
 20
1931.232135
 30
0.0
 11
1589.833022
 21
1931.232135
 31
0.0
  0
LINE
  5
362
330
33A
100
AcDbEntity
  8
LC-002-002-----0
 62
     7
370
    25
100
AcDbLine
 10
1589.833022
 20
1931.232135
 30
0.0
 11
1589.832983
 21
1931.08563
 31
0.0
  0
ENDBLK
  5
33C
330
33A
100
AcDbEntity
  8
0
100
AcDbBlockEnd
  0
BLOCK
  5
397
330
396
100
AcDbEntity
  8
0
100
AcDbBlockBegin
  2
POLY9
 70
     0
 71
     0
 10
0.0
 20
0.0
 30
0.0
  3
POLY9
  1

  4
POLY9
  0
LINE
  5
399
330
396
100
AcDbEntity
  8
LC-002-002-----0
 62
     7
370
    25
100
AcDbLine
 10
1552.545452
 20
1908.28
 30
0.0
 11
1552.545452
 21
1908.28
 31
0.0
  0
LINE
  5
39A
330
396
100
AcDbEntity
  8
LC-002-002-----0
 62
     7
370
    25
100
AcDbLine
 10
1552.545452
 20
1908.28
 30
0.0
 11
1552.48049
 21
1908.455926
 31
0.0
  0
LINE
  5
39B
330
396
100
AcDbEntity
  8
LC-002-002-----0
 62
     7
370
    25
100
AcDbLine
 10
1552.48049
 20
1908.455926
 30
0.0
 11
1552.48049
 21
1908.455926
 31
0.0
  0
LINE
  5
39C
330
396
100
AcDbEntity
  8
LC-002-002-----0
 62
     7
370
    25
100
AcDbLine
 10
1552.48049
 20
1908.455926
 30
0.0
 11
1552.419471
 21
1908.622613
 31
0.0
  0
LINE
  5
39D
330
396
100
AcDbEntity
  8
LC-002-002-----0
 62
     7
370
    25
100
AcDbLine
 10
1552.419471
 20
1908.622613
 30
0.0
 11
1552.419471
 21
1908.622613
 31
0.0
  0
LINE
  5
39E
330
396
100
AcDbEntity
  8
LC-002-002-----0
 62
     7
370
    25
100
AcDbLine
 10
1552.419471
 20
1908.622613
 30
0.0
 11
1552.362331
 21
1908.78
 31
0.0
  0
ENDBLK
  5
398
330
396
100
AcDbEntity
  8
0
100
AcDbBlockEnd
  0
BLOCK
  5
3A1
330
3A0
100
AcDbEntity
  8
0
100
AcDbBlockBegin
  2
POLY10
 70
     0
 71
     0
 10
0.0
 20
0.0
 30
0.0
  3
POLY10
  1

  4
POLY10
  0
LINE
  5
3A3
330
3A0
100
AcDbEntity
  8
LC-002-002-----0
 62
     7
370
    25
100
AcDbLine
 10
1554.162942
 20
1908.78
 30
0.0
 11
1554.162942
 21
1908.78
 31
0.0
  0
LINE
  5
3A4
330
3A0
100
AcDbEntity
  8
LC-002-002-----0
 62
     7
370
    25
100
AcDbLine
 10
1554.162942
 20
1908.78
 30
0.0
 11
1553.768333
 21
1908.622628
 31
0.0
  0
LINE
  5
3A5
330
3A0
100
AcDbEntity
  8
LC-002-002-----0
 62
     7
370
    25
100
AcDbLine
 10
1553.768333
 20
1908.622628
 30
0.0
 11
1553.768333
 21
1908.622628
 31
0.0
  0
LINE
  5
3A6
330
3A0
100
AcDbEntity
  8
LC-002-002-----0
 62
     7
370
    25
100
AcDbLine
 10
1553.768333
 20
1908.622628
 30
0.0
 11
1553.37253
 21
1908.455942
 31
0.0
  0
LINE
  5
3A7
330
3A0
100
AcDbEntity
  8
LC-002-002-----0
 62
     7
370
    25
100
AcDbLine
 10
1553.37253
 20
1908.455942
 30
0.0
 11
1553.37253
 21
1908.455942
 31
0.0
  0
LINE
  5
3A8
330
3A0
100
AcDbEntity
  8
LC-002-002-----0
 62
     7
370
    25
100
AcDbLine
 10
1553.37253
 20
1908.455942
 30
0.0
 11
1552.975694
 21
1908.28
 31
0.0
  0
ENDBLK
  5
3A2
330
3A0
100
AcDbEntity
  8
0
100
AcDbBlockEnd
  0
BLOCK
  5
3AB
330
3AA
100
AcDbEntity
  8
0
100
AcDbBlockBegin
  2
POLY11
 70
     0
 71
     0
 10
0.0
 20
0.0
 30
0.0
  3
POLY11
  1

  4
POLY11
  0
LINE
  5
3AD
330
3AA
100
AcDbEntity
  8
LC-002-002-----0
 62
     7
370
    25
100
AcDbLine
 10
1569.430094
 20
1908.28
 30
0.0
 11
1569.430094
 21
1908.28
 31
0.0
  0
LINE
  5
3AE
330
3AA
100
AcDbEntity
  8
LC-002-002-----0
 62
     7
370
    25
100
AcDbLine
 10
1569.430094
 20
1908.28
 30
0.0
 11
1568.968232
 21
1908.455952
 31
0.0
  0
LINE
  5
3AF
330
3AA
100
AcDbEntity
  8
LC-002-002-----0
 62
     7
370
    25
100
AcDbLine
 10
1568.968232
 20
1908.455952
 30
0.0
 11
1568.968232
 21
1908.455952
 31
0.0
  0
LINE
  5
3B0
330
3AA
100
AcDbEntity
  8
LC-002-002-----0
 62
     7
370
    25
100
AcDbLine
 10
1568.968232
 20
1908.455952
 30
0.0
 11
1568.511377
 21
1908.622638
 31
0.0
  0
LINE
  5
3B1
330
3AA
100
AcDbEntity
  8
LC-002-002-----0
 62
     7
370
    25
100
AcDbLine
 10
1568.511377
 20
1908.622638
 30
0.0
 11
1568.511377
 21
1908.622638
 31
0.0
  0
LINE
  5
3B2
330
3AA
100
AcDbEntity
  8
LC-002-002-----0
 62
     7
370
    25
100
AcDbLine
 10
1568.511377
 20
1908.622638
 30
0.0
 11
1568.059625
 21
1908.78
 31
0.0
  0
ENDBLK
  5
3AC
330
3AA
100
AcDbEntity
  8
0
100
AcDbBlockEnd
  0
BLOCK
  5
3B5
330
3B4
100
AcDbEntity
  8
0
100
AcDbBlockBegin
  2
POLY12
 70
     0
 71
     0
 10
0.0
 20
0.0
 30
0.0
  3
POLY12
  1

  4
POLY12
  0
LINE
  5
3B7
330
3B4
100
AcDbEntity
  8
LC-002-002-----0
 62
     7
370
    25
100
AcDbLine
 10
1552.975694
 20
1918.53
 30
0.0
 11
1552.975694
 21
1918.53
 31
0.0
  0
LINE
  5
3B8
330
3B4
100
AcDbEntity
  8
LC-002-002-----0
 62
     7
370
    25
100
AcDbLine
 10
1552.975694
 20
1918.53
 30
0.0
 11
1553.009546
 21
1918.776677
 31
0.0
  0
LINE
  5
3B9
330
3B4
100
AcDbEntity
  8
LC-002-002-----0
 62
     7
370
    25
100
AcDbLine
 10
1553.009546
 20
1918.776677
 30
0.0
 11
1553.009546
 21
1918.776677
 31
0.0
  0
LINE
  5
3BA
330
3B4
100
AcDbEntity
  8
LC-002-002-----0
 62
     7
370
    25
100
AcDbLine
 10
1553.009546
 20
1918.776677
 30
0.0
 11
1553.114737
 21
1919.02683
 31
0.0
  0
LINE
  5
3BB
330
3B4
100
AcDbEntity
  8
LC-002-002-----0
 62
     7
370
    25
100
AcDbLine
 10
1553.114737
 20
1919.02683
 30
0.0
 11
1553.114737
 21
1919.02683
 31
0.0
  0
LINE
  5
3BC
330
3B4
100
AcDbEntity
  8
LC-002-002-----0
 62
     7
370
    25
100
AcDbLine
 10
1553.114737
 20
1919.02683
 30
0.0
 11
1553.287954
 21
1919.263077
 31
0.0
  0
LINE
  5
3BD
330
3B4
100
AcDbEntity
  8
LC-002-002-----0
 62
     7
370
    25
100
AcDbLine
 10
1553.287954
 20
1919.263077
 30
0.0
 11
1553.287954
 21
1919.263077
 31
0.0
  0
LINE
  5
3BE
330
3B4
100
AcDbEntity
  8
LC-002-002-----0
 62
     7
370
    25
100
AcDbLine
 10
1553.287954
 20
1919.263077
 30
0.0
 11
1553.512935
 21
1919.472644
 31
0.0
  0
LINE
  5
3BF
330
3B4
100
AcDbEntity
  8
LC-002-002-----0
 62
     7
370
    25
100
AcDbLine
 10
1553.512935
 20
1919.472644
 30
0.0
 11
1553.512935
 21
1919.472644
 31
0.0
  0
LINE
  5
3C0
330
3B4
100
AcDbEntity
  8
LC-002-002-----0
 62
     7
370
    25
100
AcDbLine
 10
1553.512935
 20
1919.472644
 30
0.0
 11
1553.776966
 21
1919.654883
 31
0.0
  0
LINE
  5
3C1
330
3B4
100
AcDbEntity
  8
LC-002-002-----0
 62
     7
370
    25
100
AcDbLine
 10
1553.776966
 20
1919.654883
 30
0.0
 11
1553.776966
 21
1919.654883
 31
0.0
  0
LINE
  5
3C2
330
3B4
100
AcDbEntity
  8
LC-002-002-----0
 62
     7
370
    25
100
AcDbLine
 10
1553.776966
 20
1919.654883
 30
0.0
 11
1554.079745
 21
1919.815133
 31
0.0
  0
LINE
  5
3C3
330
3B4
100
AcDbEntity
  8
LC-002-002-----0
 62
     7
370
    25
100
AcDbLine
 10
1554.079745
 20
1919.815133
 30
0.0
 11
1554.079745
 21
1919.815133
 31
0.0
  0
LINE
  5
3C4
330
3B4
100
AcDbEntity
  8
LC-002-002-----0
 62
     7
370
    25
100
AcDbLine
 10
1554.079745
 20
1919.815133
 30
0.0
 11
1554.423698
 21
1919.957444
 31
0.0
  0
LINE
  5
3C5
330
3B4
100
AcDbEntity
  8
LC-002-002-----0
 62
     7
370
    25
100
AcDbLine
 10
1554.423698
 20
1919.957444
 30
0.0
 11
1554.423698
 21
1919.957444
 31
0.0
  0
LINE
  5
3C6
330
3B4
100
AcDbEntity
  8
LC-002-002-----0
 62
     7
370
    25
100
AcDbLine
 10
1554.423698
 20
1919.957444
 30
0.0
 11
1554.81365
 21
1920.083325
 31
0.0
  0
LINE
  5
3C7
330
3B4
100
AcDbEntity
  8
LC-002-002-----0
 62
     7
370
    25
100
AcDbLine
 10
1554.81365
 20
1920.083325
 30
0.0
 11
1554.81365
 21
1920.083325
 31
0.0
  0
LINE
  5
3C8
330
3B4
100
AcDbEntity
  8
LC-002-002-----0
 62
     7
370
    25
100
AcDbLine
 10
1554.81365
 20
1920.083325
 30
0.0
 11
1555.253159
 21
1920.192739
 31
0.0
  0
LINE
  5
3C9
330
3B4
100
AcDbEntity
  8
LC-002-002-----0
 62
     7
370
    25
100
AcDbLine
 10
1555.253159
 20
1920.192739
 30
0.0
 11
1555.253159
 21
1920.192739
 31
0.0
  0
LINE
  5
3CA
330
3B4
100
AcDbEntity
  8
LC-002-002-----0
 62
     7
370
    25
100
AcDbLine
 10
1555.253159
 20
1920.192739
 30
0.0
 11
1555.742046
 21
1920.284914
 31
0.0
  0
LINE
  5
3CB
330
3B4
100
AcDbEntity
  8
LC-002-002-----0
 62
     7
370
    25
100
AcDbLine
 10
1555.742046
 20
1920.284914
 30
0.0
 11
1555.742046
 21
1920.284914
 31
0.0
  0
LINE
  5
3CC
330
3B4
100
AcDbEntity
  8
LC-002-002-----0
 62
     7
370
    25
100
AcDbLine
 10
1555.742046
 20
1920.284914
 30
0.0
 11
1556.276519
 21
1920.359104
 31
0.0
  0
LINE
  5
3CD
330
3B4
100
AcDbEntity
  8
LC-002-002-----0
 62
     7
370
    25
100
AcDbLine
 10
1556.276519
 20
1920.359104
 30
0.0
 11
1556.276519
 21
1920.359104
 31
0.0
  0
LINE
  5
3CE
330
3B4
100
AcDbEntity
  8
LC-002-002-----0
 62
     7
370
    25
100
AcDbLine
 10
1556.276519
 20
1920.359104
 30
0.0
 11
1556.851525
 21
1920.415862
 31
0.0
  0
LINE
  5
3CF
330
3B4
100
AcDbEntity
  8
LC-002-002-----0
 62
     7
370
    25
100
AcDbLine
 10
1556.851525
 20
1920.415862
 30
0.0
 11
1556.851525
 21
1920.415862
 31
0.0
  0
LINE
  5
3D0
330
3B4
100
AcDbEntity
  8
LC-002-002-----0
 62
     7
370
    25
100
AcDbLine
 10
1556.851525
 20
1920.415862
 30
0.0
 11
1557.461951
 21
1920.457055
 31
0.0
  0
LINE
  5
3D1
330
3B4
100
AcDbEntity
  8
LC-002-002-----0
 62
     7
370
    25
100
AcDbLine
 10
1557.461951
 20
1920.457055
 30
0.0
 11
1557.461951
 21
1920.457055
 31
0.0
  0
LINE
  5
3D2
330
3B4
100
AcDbEntity
  8
LC-002-002-----0
 62
     7
370
    25
100
AcDbLine
 10
1557.461951
 20
1920.457055
 30
0.0
 11
1558.10286
 21
1920.48507
 31
0.0
  0
LINE
  5
3D3
330
3B4
100
AcDbEntity
  8
LC-002-002-----0
 62
     7
370
    25
100
AcDbLine
 10
1558.10286
 20
1920.48507
 30
0.0
 11
1558.10286
 21
1920.48507
 31
0.0
  0
LINE
  5
3D4
330
3B4
100
AcDbEntity
  8
LC-002-002-----0
 62
     7
370
    25
100
AcDbLine
 10
1558.10286
 20
1920.48507
 30
0.0
 11
1558.769296
 21
1920.502881
 31
0.0
  0
LINE
  5
3D5
330
3B4
100
AcDbEntity
  8
LC-002-002-----0
 62
     7
370
    25
100
AcDbLine
 10
1558.769296
 20
1920.502881
 30
0.0
 11
1558.769296
 21
1920.502881
 31
0.0
  0
LINE
  5
3D6
330
3B4
100
AcDbEntity
  8
LC-002-002-----0
 62
     7
370
    25
100
AcDbLine
 10
1558.769296
 20
1920.502881
 30
0.0
 11
1559.456262
 21
1920.513451
 31
0.0
  0
LINE
  5
3D7
330
3B4
100
AcDbEntity
  8
LC-002-002-----0
 62
     7
370
    25
100
AcDbLine
 10
1559.456262
 20
1920.513451
 30
0.0
 11
1559.456262
 21
1920.513451
 31
0.0
  0
LINE
  5
3D8
330
3B4
100
AcDbEntity
  8
LC-002-002-----0
 62
     7
370
    25
100
AcDbLine
 10
1559.456262
 20
1920.513451
 30
0.0
 11
1560.158735
 21
1920.518514
 31
0.0
  0
LINE
  5
3D9
330
3B4
100
AcDbEntity
  8
LC-002-002-----0
 62
     7
370
    25
100
AcDbLine
 10
1560.158735
 20
1920.518514
 30
0.0
 11
1560.158735
 21
1920.518514
 31
0.0
  0
LINE
  5
3DA
330
3B4
100
AcDbEntity
  8
LC-002-002-----0
 62
     7
370
    25
100
AcDbLine
 10
1560.158735
 20
1920.518514
 30
0.0
 11
1560.871564
 21
1920.519805
 31
0.0
  0
LINE
  5
3DB
330
3B4
100
AcDbEntity
  8
LC-002-002-----0
 62
     7
370
    25
100
AcDbLine
 10
1560.871564
 20
1920.519805
 30
0.0
 11
1560.871564
 21
1920.519805
 31
0.0
  0
LINE
  5
3DC
330
3B4
100
AcDbEntity
  8
LC-002-002-----0
 62
     7
370
    25
100
AcDbLine
 10
1560.871564
 20
1920.519805
 30
0.0
 11
1561.589436
 21
1920.51863
 31
0.0
  0
LINE
  5
3DD
330
3B4
100
AcDbEntity
  8
LC-002-002-----0
 62
     7
370
    25
100
AcDbLine
 10
1561.589436
 20
1920.51863
 30
0.0
 11
1561.589436
 21
1920.51863
 31
0.0
  0
LINE
  5
3DE
330
3B4
100
AcDbEntity
  8
LC-002-002-----0
 62
     7
370
    25
100
AcDbLine
 10
1561.589436
 20
1920.51863
 30
0.0
 11
1562.306859
 21
1920.513735
 31
0.0
  0
LINE
  5
3DF
330
3B4
100
AcDbEntity
  8
LC-002-002-----0
 62
     7
370
    25
100
AcDbLine
 10
1562.306859
 20
1920.513735
 30
0.0
 11
1562.306859
 21
1920.513735
 31
0.0
  0
LINE
  5
3E0
330
3B4
100
AcDbEntity
  8
LC-002-002-----0
 62
     7
370
    25
100
AcDbLine
 10
1562.306859
 20
1920.513735
 30
0.0
 11
1563.018197
 21
1920.50336
 31
0.0
  0
LINE
  5
3E1
330
3B4
100
AcDbEntity
  8
LC-002-002-----0
 62
     7
370
    25
100
AcDbLine
 10
1563.018197
 20
1920.50336
 30
0.0
 11
1563.018197
 21
1920.50336
 31
0.0
  0
LINE
  5
3E2
330
3B4
100
AcDbEntity
  8
LC-002-002-----0
 62
     7
370
    25
100
AcDbLine
 10
1563.018197
 20
1920.50336
 30
0.0
 11
1563.717667
 21
1920.485783
 31
0.0
  0
LINE
  5
3E3
330
3B4
100
AcDbEntity
  8
LC-002-002-----0
 62
     7
370
    25
100
AcDbLine
 10
1563.717667
 20
1920.485783
 30
0.0
 11
1563.717667
 21
1920.485783
 31
0.0
  0
LINE
  5
3E4
330
3B4
100
AcDbEntity
  8
LC-002-002-----0
 62
     7
370
    25
100
AcDbLine
 10
1563.717667
 20
1920.485783
 30
0.0
 11
1564.399239
 21
1920.458088
 31
0.0
  0
LINE
  5
3E5
330
3B4
100
AcDbEntity
  8
LC-002-002-----0
 62
     7
370
    25
100
AcDbLine
 10
1564.399239
 20
1920.458088
 30
0.0
 11
1564.399239
 21
1920.458088
 31
0.0
  0
LINE
  5
3E6
330
3B4
100
AcDbEntity
  8
LC-002-002-----0
 62
     7
370
    25
100
AcDbLine
 10
1564.399239
 20
1920.458088
 30
0.0
 11
1565.056671
 21
1920.417293
 31
0.0
  0
LINE
  5
3E7
330
3B4
100
AcDbEntity
  8
LC-002-002-----0
 62
     7
370
    25
100
AcDbLine
 10
1565.056671
 20
1920.417293
 30
0.0
 11
1565.056671
 21
1920.417293
 31
0.0
  0
LINE
  5
3E8
330
3B4
100
AcDbEntity
  8
LC-002-002-----0
 62
     7
370
    25
100
AcDbLine
 10
1565.056671
 20
1920.417293
 30
0.0
 11
1565.683494
 21
1920.36093
 31
0.0
  0
LINE
  5
3E9
330
3B4
100
AcDbEntity
  8
LC-002-002-----0
 62
     7
370
    25
100
AcDbLine
 10
1565.683494
 20
1920.36093
 30
0.0
 11
1565.683494
 21
1920.36093
 31
0.0
  0
LINE
  5
3EA
330
3B4
100
AcDbEntity
  8
LC-002-002-----0
 62
     7
370
    25
100
AcDbLine
 10
1565.683494
 20
1920.36093
 30
0.0
 11
1566.272855
 21
1920.287096
 31
0.0
  0
LINE
  5
3EB
330
3B4
100
AcDbEntity
  8
LC-002-002-----0
 62
     7
370
    25
100
AcDbLine
 10
1566.272855
 20
1920.287096
 30
0.0
 11
1566.272855
 21
1920.287096
 31
0.0
  0
LINE
  5
3EC
330
3B4
100
AcDbEntity
  8
LC-002-002-----0
 62
     7
370
    25
100
AcDbLine
 10
1566.272855
 20
1920.287096
 30
0.0
 11
1566.817754
 21
1920.195165
 31
0.0
  0
LINE
  5
3ED
330
3B4
100
AcDbEntity
  8
LC-002-002-----0
 62
     7
370
    25
100
AcDbLine
 10
1566.817754
 20
1920.195165
 30
0.0
 11
1566.817754
 21
1920.195165
 31
0.0
  0
LINE
  5
3EE
330
3B4
100
AcDbEntity
  8
LC-002-002-----0
 62
     7
370
    25
100
AcDbLine
 10
1566.817754
 20
1920.195165
 30
0.0
 11
1567.312382
 21
1920.085888
 31
0.0
  0
LINE
  5
3EF
330
3B4
100
AcDbEntity
  8
LC-002-002-----0
 62
     7
370
    25
100
AcDbLine
 10
1567.312382
 20
1920.085888
 30
0.0
 11
1567.312382
 21
1920.085888
 31
0.0
  0
LINE
  5
3F0
330
3B4
100
AcDbEntity
  8
LC-002-002-----0
 62
     7
370
    25
100
AcDbLine
 10
1567.312382
 20
1920.085888
 30
0.0
 11
1567.755041
 21
1919.960036
 31
0.0
  0
LINE
  5
3F1
330
3B4
100
AcDbEntity
  8
LC-002-002-----0
 62
     7
370
    25
100
AcDbLine
 10
1567.755041
 20
1919.960036
 30
0.0
 11
1567.755041
 21
1919.960036
 31
0.0
  0
LINE
  5
3F2
330
3B4
100
AcDbEntity
  8
LC-002-002-----0
 62
     7
370
    25
100
AcDbLine
 10
1567.755041
 20
1919.960036
 30
0.0
 11
1568.148404
 21
1919.817657
 31
0.0
  0
LINE
  5
3F3
330
3B4
100
AcDbEntity
  8
LC-002-002-----0
 62
     7
370
    25
100
AcDbLine
 10
1568.148404
 20
1919.817657
 30
0.0
 11
1568.148404
 21
1919.817657
 31
0.0
  0
LINE
  5
3F4
330
3B4
100
AcDbEntity
  8
LC-002-002-----0
 62
     7
370
    25
100
AcDbLine
 10
1568.148404
 20
1919.817657
 30
0.0
 11
1568.49694
 21
1919.657223
 31
0.0
  0
LINE
  5
3F5
330
3B4
100
AcDbEntity
  8
LC-002-002-----0
 62
     7
370
    25
100
AcDbLine
 10
1568.49694
 20
1919.657223
 30
0.0
 11
1568.49694
 21
1919.657223
 31
0.0
  0
LINE
  5
3F6
330
3B4
100
AcDbEntity
  8
LC-002-002-----0
 62
     7
370
    25
100
AcDbLine
 10
1568.49694
 20
1919.657223
 30
0.0
 11
1568.802677
 21
1919.474771
 31
0.0
  0
LINE
  5
3F7
330
3B4
100
AcDbEntity
  8
LC-002-002-----0
 62
     7
370
    25
100
AcDbLine
 10
1568.802677
 20
1919.474771
 30
0.0
 11
1568.802677
 21
1919.474771
 31
0.0
  0
LINE
  5
3F8
330
3B4
100
AcDbEntity
  8
LC-002-002-----0
 62
     7
370
    25
100
AcDbLine
 10
1568.802677
 20
1919.474771
 30
0.0
 11
1569.064543
 21
1919.264857
 31
0.0
  0
LINE
  5
3F9
330
3B4
100
AcDbEntity
  8
LC-002-002-----0
 62
     7
370
    25
100
AcDbLine
 10
1569.064543
 20
1919.264857
 30
0.0
 11
1569.064543
 21
1919.264857
 31
0.0
  0
LINE
  5
3FA
330
3B4
100
AcDbEntity
  8
LC-002-002-----0
 62
     7
370
    25
100
AcDbLine
 10
1569.064543
 20
1919.264857
 30
0.0
 11
1569.267073
 21
1919.02793
 31
0.0
  0
LINE
  5
3FB
330
3B4
100
AcDbEntity
  8
LC-002-002-----0
 62
     7
370
    25
100
AcDbLine
 10
1569.267073
 20
1919.02793
 30
0.0
 11
1569.267073
 21
1919.02793
 31
0.0
  0
LINE
  5
3FC
330
3B4
100
AcDbEntity
  8
LC-002-002-----0
 62
     7
370
    25
100
AcDbLine
 10
1569.267073
 20
1919.02793
 30
0.0
 11
1569.390435
 21
1918.777026
 31
0.0
  0
LINE
  5
3FD
330
3B4
100
AcDbEntity
  8
LC-002-002-----0
 62
     7
370
    25
100
AcDbLine
 10
1569.390435
 20
1918.777026
 30
0.0
 11
1569.390435
 21
1918.777026
 31
0.0
  0
LINE
  5
3FE
330
3B4
100
AcDbEntity
  8
LC-002-002-----0
 62
     7
370
    25
100
AcDbLine
 10
1569.390435
 20
1918.777026
 30
0.0
 11
1569.430094
 21
1918.53
 31
0.0
  0
ENDBLK
  5
3B6
330
3B4
100
AcDbEntity
  8
0
100
AcDbBlockEnd
  0
BLOCK
  5
401
330
400
100
AcDbEntity
  8
0
100
AcDbBlockBegin
  2
POLY13
 70
     0
 71
     0
 10
0.0
 20
0.0
 30
0.0
  3
POLY13
  1

  4
POLY13
  0
LINE
  5
403
330
400
100
AcDbEntity
  8
LC-002-002-----0
 62
     7
370
    25
100
AcDbLine
 10
1587.175489
 20
1908.28
 30
0.0
 11
1587.175489
 21
1908.28
 31
0.0
  0
LINE
  5
404
330
400
100
AcDbEntity
  8
LC-002-002-----0
 62
     7
370
    25
100
AcDbLine
 10
1587.175489
 20
1908.28
 30
0.0
 11
1587.240452
 21
1908.455926
 31
0.0
  0
LINE
  5
405
330
400
100
AcDbEntity
  8
LC-002-002-----0
 62
     7
370
    25
100
AcDbLine
 10
1587.240452
 20
1908.455926
 30
0.0
 11
1587.240452
 21
1908.455926
 31
0.0
  0
LINE
  5
406
330
400
100
AcDbEntity
  8
LC-002-002-----0
 62
     7
370
    25
100
AcDbLine
 10
1587.240452
 20
1908.455926
 30
0.0
 11
1587.301471
 21
1908.622613
 31
0.0
  0
LINE
  5
407
330
400
100
AcDbEntity
  8
LC-002-002-----0
 62
     7
370
    25
100
AcDbLine
 10
1587.301471
 20
1908.622613
 30
0.0
 11
1587.301471
 21
1908.622613
 31
0.0
  0
LINE
  5
408
330
400
100
AcDbEntity
  8
LC-002-002-----0
 62
     7
370
    25
100
AcDbLine
 10
1587.301471
 20
1908.622613
 30
0.0
 11
1587.358611
 21
1908.78
 31
0.0
  0
ENDBLK
  5
402
330
400
100
AcDbEntity
  8
0
100
AcDbBlockEnd
  0
BLOCK
  5
40B
330
40A
100
AcDbEntity
  8
0
100
AcDbBlockBegin
  2
POLY14
 70
     0
 71
     0
 10
0.0
 20
0.0
 30
0.0
  3
POLY14
  1

  4
POLY14
  0
LINE
  5
40D
330
40A
100
AcDbEntity
  8
LC-002-002-----0
 62
     7
370
    25
100
AcDbLine
 10
1585.558
 20
1908.78
 30
0.0
 11
1585.558
 21
1908.78
 31
0.0
  0
LINE
  5
40E
330
40A
100
AcDbEntity
  8
LC-002-002-----0
 62
     7
370
    25
100
AcDbLine
 10
1585.558
 20
1908.78
 30
0.0
 11
1585.952609
 21
1908.622628
 31
0.0
  0
LINE
  5
40F
330
40A
100
AcDbEntity
  8
LC-002-002-----0
 62
     7
370
    25
100
AcDbLine
 10
1585.952609
 20
1908.622628
 30
0.0
 11
1585.952609
 21
1908.622628
 31
0.0
  0
LINE
  5
410
330
40A
100
AcDbEntity
  8
LC-002-002-----0
 62
     7
370
    25
100
AcDbLine
 10
1585.952609
 20
1908.622628
 30
0.0
 11
1586.348411
 21
1908.455942
 31
0.0
  0
LINE
  5
411
330
40A
100
AcDbEntity
  8
LC-002-002-----0
 62
     7
370
    25
100
AcDbLine
 10
1586.348411
 20
1908.455942
 30
0.0
 11
1586.348411
 21
1908.455942
 31
0.0
  0
LINE
  5
412
330
40A
100
AcDbEntity
  8
LC-002-002-----0
 62
     7
370
    25
100
AcDbLine
 10
1586.348411
 20
1908.455942
 30
0.0
 11
1586.745247
 21
1908.28
 31
0.0
  0
ENDBLK
  5
40C
330
40A
100
AcDbEntity
  8
0
100
AcDbBlockEnd
  0
BLOCK
  5
415
330
414
100
AcDbEntity
  8
0
100
AcDbBlockBegin
  2
POLY15
 70
     0
 71
     0
 10
0.0
 20
0.0
 30
0.0
  3
POLY15
  1

  4
POLY15
  0
LINE
  5
417
330
414
100
AcDbEntity
  8
LC-002-002-----0
 62
     7
370
    25
100
AcDbLine
 10
1570.290848
 20
1908.28
 30
0.0
 11
1570.290848
 21
1908.28
 31
0.0
  0
LINE
  5
418
330
414
100
AcDbEntity
  8
LC-002-002-----0
 62
     7
370
    25
100
AcDbLine
 10
1570.290848
 20
1908.28
 30
0.0
 11
1570.75271
 21
1908.455952
 31
0.0
  0
LINE
  5
419
330
414
100
AcDbEntity
  8
LC-002-002-----0
 62
     7
370
    25
100
AcDbLine
 10
1570.75271
 20
1908.455952
 30
0.0
 11
1570.75271
 21
1908.455952
 31
0.0
  0
LINE
  5
41A
330
414
100
AcDbEntity
  8
LC-002-002-----0
 62
     7
370
    25
100
AcDbLine
 10
1570.75271
 20
1908.455952
 30
0.0
 11
1571.209565
 21
1908.622638
 31
0.0
  0
LINE
  5
41B
330
414
100
AcDbEntity
  8
LC-002-002-----0
 62
     7
370
    25
100
AcDbLine
 10
1571.209565
 20
1908.622638
 30
0.0
 11
1571.209565
 21
1908.622638
 31
0.0
  0
LINE
  5
41C
330
414
100
AcDbEntity
  8
LC-002-002-----0
 62
     7
370
    25
100
AcDbLine
 10
1571.209565
 20
1908.622638
 30
0.0
 11
1571.661316
 21
1908.78
 31
0.0
  0
ENDBLK
  5
416
330
414
100
AcDbEntity
  8
0
100
AcDbBlockEnd
  0
BLOCK
  5
41F
330
41E
100
AcDbEntity
  8
0
100
AcDbBlockBegin
  2
POLY16
 70
     0
 71
     0
 10
0.0
 20
0.0
 30
0.0
  3
POLY16
  1

  4
POLY16
  0
LINE
  5
421
330
41E
100
AcDbEntity
  8
LC-002-002-----0
 62
     7
370
    25
100
AcDbLine
 10
1586.745247
 20
1918.53
 30
0.0
 11
1586.745247
 21
1918.53
 31
0.0
  0
LINE
  5
422
330
41E
100
AcDbEntity
  8
LC-002-002-----0
 62
     7
370
    25
100
AcDbLine
 10
1586.745247
 20
1918.53
 30
0.0
 11
1586.711395
 21
1918.776677
 31
0.0
  0
LINE
  5
423
330
41E
100
AcDbEntity
  8
LC-002-002-----0
 62
     7
370
    25
100
AcDbLine
 10
1586.711395
 20
1918.776677
 30
0.0
 11
1586.711395
 21
1918.776677
 31
0.0
  0
LINE
  5
424
330
41E
100
AcDbEntity
  8
LC-002-002-----0
 62
     7
370
    25
100
AcDbLine
 10
1586.711395
 20
1918.776677
 30
0.0
 11
1586.606205
 21
1919.02683
 31
0.0
  0
LINE
  5
425
330
41E
100
AcDbEntity
  8
LC-002-002-----0
 62
     7
370
    25
100
AcDbLine
 10
1586.606205
 20
1919.02683
 30
0.0
 11
1586.606205
 21
1919.02683
 31
0.0
  0
LINE
  5
426
330
41E
100
AcDbEntity
  8
LC-002-002-----0
 62
     7
370
    25
100
AcDbLine
 10
1586.606205
 20
1919.02683
 30
0.0
 11
1586.432988
 21
1919.263077
 31
0.0
  0
LINE
  5
427
330
41E
100
AcDbEntity
  8
LC-002-002-----0
 62
     7
370
    25
100
AcDbLine
 10
1586.432988
 20
1919.263077
 30
0.0
 11
1586.432988
 21
1919.263077
 31
0.0
  0
LINE
  5
428
330
41E
100
AcDbEntity
  8
LC-002-002-----0
 62
     7
370
    25
100
AcDbLine
 10
1586.432988
 20
1919.263077
 30
0.0
 11
1586.208006
 21
1919.472644
 31
0.0
  0
LINE
  5
429
330
41E
100
AcDbEntity
  8
LC-002-002-----0
 62
     7
370
    25
100
AcDbLine
 10
1586.208006
 20
1919.472644
 30
0.0
 11
1586.208006
 21
1919.472644
 31
0.0
  0
LINE
  5
42A
330
41E
100
AcDbEntity
  8
LC-002-002-----0
 62
     7
370
    25
100
AcDbLine
 10
1586.208006
 20
1919.472644
 30
0.0
 11
1585.943975
 21
1919.654883
 31
0.0
  0
LINE
  5
42B
330
41E
100
AcDbEntity
  8
LC-002-002-----0
 62
     7
370
    25
100
AcDbLine
 10
1585.943975
 20
1919.654883
 30
0.0
 11
1585.943975
 21
1919.654883
 31
0.0
  0
LINE
  5
42C
330
41E
100
AcDbEntity
  8
LC-002-002-----0
 62
     7
370
    25
100
AcDbLine
 10
1585.943975
 20
1919.654883
 30
0.0
 11
1585.641196
 21
1919.815133
 31
0.0
  0
LINE
  5
42D
330
41E
100
AcDbEntity
  8
LC-002-002-----0
 62
     7
370
    25
100
AcDbLine
 10
1585.641196
 20
1919.815133
 30
0.0
 11
1585.641196
 21
1919.815133
 31
0.0
  0
LINE
  5
42E
330
41E
100
AcDbEntity
  8
LC-002-002-----0
 62
     7
370
    25
100
AcDbLine
 10
1585.641196
 20
1919.815133
 30
0.0
 11
1585.297244
 21
1919.957444
 31
0.0
  0
LINE
  5
42F
330
41E
100
AcDbEntity
  8
LC-002-002-----0
 62
     7
370
    25
100
AcDbLine
 10
1585.297244
 20
1919.957444
 30
0.0
 11
1585.297244
 21
1919.957444
 31
0.0
  0
LINE
  5
430
330
41E
100
AcDbEntity
  8
LC-002-002-----0
 62
     7
370
    25
100
AcDbLine
 10
1585.297244
 20
1919.957444
 30
0.0
 11
1584.907292
 21
1920.083325
 31
0.0
  0
LINE
  5
431
330
41E
100
AcDbEntity
  8
LC-002-002-----0
 62
     7
370
    25
100
AcDbLine
 10
1584.907292
 20
1920.083325
 30
0.0
 11
1584.907292
 21
1920.083325
 31
0.0
  0
LINE
  5
432
330
41E
100
AcDbEntity
  8
LC-002-002-----0
 62
     7
370
    25
100
AcDbLine
 10
1584.907292
 20
1920.083325
 30
0.0
 11
1584.467783
 21
1920.192739
 31
0.0
  0
LINE
  5
433
330
41E
100
AcDbEntity
  8
LC-002-002-----0
 62
     7
370
    25
100
AcDbLine
 10
1584.467783
 20
1920.192739
 30
0.0
 11
1584.467783
 21
1920.192739
 31
0.0
  0
LINE
  5
434
330
41E
100
AcDbEntity
  8
LC-002-002-----0
 62
     7
370
    25
100
AcDbLine
 10
1584.467783
 20
1920.192739
 30
0.0
 11
1583.978896
 21
1920.284914
 31
0.0
  0
LINE
  5
435
330
41E
100
AcDbEntity
  8
LC-002-002-----0
 62
     7
370
    25
100
AcDbLine
 10
1583.978896
 20
1920.284914
 30
0.0
 11
1583.978896
 21
1920.284914
 31
0.0
  0
LINE
  5
436
330
41E
100
AcDbEntity
  8
LC-002-002-----0
 62
     7
370
    25
100
AcDbLine
 10
1583.978896
 20
1920.284914
 30
0.0
 11
1583.444422
 21
1920.359104
 31
0.0
  0
LINE
  5
437
330
41E
100
AcDbEntity
  8
LC-002-002-----0
 62
     7
370
    25
100
AcDbLine
 10
1583.444422
 20
1920.359104
 30
0.0
 11
1583.444422
 21
1920.359104
 31
0.0
  0
LINE
  5
438
330
41E
100
AcDbEntity
  8
LC-002-002-----0
 62
     7
370
    25
100
AcDbLine
 10
1583.444422
 20
1920.359104
 30
0.0
 11
1582.869417
 21
1920.415862
 31
0.0
  0
LINE
  5
439
330
41E
100
AcDbEntity
  8
LC-002-002-----0
 62
     7
370
    25
100
AcDbLine
 10
1582.869417
 20
1920.415862
 30
0.0
 11
1582.869417
 21
1920.415862
 31
0.0
  0
LINE
  5
43A
330
41E
100
AcDbEntity
  8
LC-002-002-----0
 62
     7
370
    25
100
AcDbLine
 10
1582.869417
 20
1920.415862
 30
0.0
 11
1582.258991
 21
1920.457055
 31
0.0
  0
LINE
  5
43B
330
41E
100
AcDbEntity
  8
LC-002-002-----0
 62
     7
370
    25
100
AcDbLine
 10
1582.258991
 20
1920.457055
 30
0.0
 11
1582.258991
 21
1920.457055
 31
0.0
  0
LINE
  5
43C
330
41E
100
AcDbEntity
  8
LC-002-002-----0
 62
     7
370
    25
100
AcDbLine
 10
1582.258991
 20
1920.457055
 30
0.0
 11
1581.618082
 21
1920.48507
 31
0.0
  0
LINE
  5
43D
330
41E
100
AcDbEntity
  8
LC-002-002-----0
 62
     7
370
    25
100
AcDbLine
 10
1581.618082
 20
1920.48507
 30
0.0
 11
1581.618082
 21
1920.48507
 31
0.0
  0
LINE
  5
43E
330
41E
100
AcDbEntity
  8
LC-002-002-----0
 62
     7
370
    25
100
AcDbLine
 10
1581.618082
 20
1920.48507
 30
0.0
 11
1580.951646
 21
1920.502881
 31
0.0
  0
LINE
  5
43F
330
41E
100
AcDbEntity
  8
LC-002-002-----0
 62
     7
370
    25
100
AcDbLine
 10
1580.951646
 20
1920.502881
 30
0.0
 11
1580.951646
 21
1920.502881
 31
0.0
  0
LINE
  5
440
330
41E
100
AcDbEntity
  8
LC-002-002-----0
 62
     7
370
    25
100
AcDbLine
 10
1580.951646
 20
1920.502881
 30
0.0
 11
1580.26468
 21
1920.513451
 31
0.0
  0
LINE
  5
441
330
41E
100
AcDbEntity
  8
LC-002-002-----0
 62
     7
370
    25
100
AcDbLine
 10
1580.26468
 20
1920.513451
 30
0.0
 11
1580.26468
 21
1920.513451
 31
0.0
  0
LINE
  5
442
330
41E
100
AcDbEntity
  8
LC-002-002-----0
 62
     7
370
    25
100
AcDbLine
 10
1580.26468
 20
1920.513451
 30
0.0
 11
1579.562206
 21
1920.518514
 31
0.0
  0
LINE
  5
443
330
41E
100
AcDbEntity
  8
LC-002-002-----0
 62
     7
370
    25
100
AcDbLine
 10
1579.562206
 20
1920.518514
 30
0.0
 11
1579.562206
 21
1920.518514
 31
0.0
  0
LINE
  5
444
330
41E
100
AcDbEntity
  8
LC-002-002-----0
 62
     7
370
    25
100
AcDbLine
 10
1579.562206
 20
1920.518514
 30
0.0
 11
1578.849377
 21
1920.519805
 31
0.0
  0
LINE
  5
445
330
41E
100
AcDbEntity
  8
LC-002-002-----0
 62
     7
370
    25
100
AcDbLine
 10
1578.849377
 20
1920.519805
 30
0.0
 11
1578.849377
 21
1920.519805
 31
0.0
  0
LINE
  5
446
330
41E
100
AcDbEntity
  8
LC-002-002-----0
 62
     7
370
    25
100
AcDbLine
 10
1578.849377
 20
1920.519805
 30
0.0
 11
1578.131506
 21
1920.51863
 31
0.0
  0
LINE
  5
447
330
41E
100
AcDbEntity
  8
LC-002-002-----0
 62
     7
370
    25
100
AcDbLine
 10
1578.131506
 20
1920.51863
 30
0.0
 11
1578.131506
 21
1920.51863
 31
0.0
  0
LINE
  5
448
330
41E
100
AcDbEntity
  8
LC-002-002-----0
 62
     7
370
    25
100
AcDbLine
 10
1578.131506
 20
1920.51863
 30
0.0
 11
1577.414083
 21
1920.513735
 31
0.0
  0
LINE
  5
449
330
41E
100
AcDbEntity
  8
LC-002-002-----0
 62
     7
370
    25
100
AcDbLine
 10
1577.414083
 20
1920.513735
 30
0.0
 11
1577.414083
 21
1920.513735
 31
0.0
  0
LINE
  5
44A
330
41E
100
AcDbEntity
  8
LC-002-002-----0
 62
     7
370
    25
100
AcDbLine
 10
1577.414083
 20
1920.513735
 30
0.0
 11
1576.702745
 21
1920.50336
 31
0.0
  0
LINE
  5
44B
330
41E
100
AcDbEntity
  8
LC-002-002-----0
 62
     7
370
    25
100
AcDbLine
 10
1576.702745
 20
1920.50336
 30
0.0
 11
1576.702745
 21
1920.50336
 31
0.0
  0
LINE
  5
44C
330
41E
100
AcDbEntity
  8
LC-002-002-----0
 62
     7
370
    25
100
AcDbLine
 10
1576.702745
 20
1920.50336
 30
0.0
 11
1576.003275
 21
1920.485783
 31
0.0
  0
LINE
  5
44D
330
41E
100
AcDbEntity
  8
LC-002-002-----0
 62
     7
370
    25
100
AcDbLine
 10
1576.003275
 20
1920.485783
 30
0.0
 11
1576.003275
 21
1920.485783
 31
0.0
  0
LINE
  5
44E
330
41E
100
AcDbEntity
  8
LC-002-002-----0
 62
     7
370
    25
100
AcDbLine
 10
1576.003275
 20
1920.485783
 30
0.0
 11
1575.321702
 21
1920.458088
 31
0.0
  0
LINE
  5
44F
330
41E
100
AcDbEntity
  8
LC-002-002-----0
 62
     7
370
    25
100
AcDbLine
 10
1575.321702
 20
1920.458088
 30
0.0
 11
1575.321702
 21
1920.458088
 31
0.0
  0
LINE
  5
450
330
41E
100
AcDbEntity
  8
LC-002-002-----0
 62
     7
370
    25
100
AcDbLine
 10
1575.321702
 20
1920.458088
 30
0.0
 11
1574.664271
 21
1920.417293
 31
0.0
  0
LINE
  5
451
330
41E
100
AcDbEntity
  8
LC-002-002-----0
 62
     7
370
    25
100
AcDbLine
 10
1574.664271
 20
1920.417293
 30
0.0
 11
1574.664271
 21
1920.417293
 31
0.0
  0
LINE
  5
452
330
41E
100
AcDbEntity
  8
LC-002-002-----0
 62
     7
370
    25
100
AcDbLine
 10
1574.664271
 20
1920.417293
 30
0.0
 11
1574.037447
 21
1920.36093
 31
0.0
  0
LINE
  5
453
330
41E
100
AcDbEntity
  8
LC-002-002-----0
 62
     7
370
    25
100
AcDbLine
 10
1574.037447
 20
1920.36093
 30
0.0
 11
1574.037447
 21
1920.36093
 31
0.0
  0
LINE
  5
454
330
41E
100
AcDbEntity
  8
LC-002-002-----0
 62
     7
370
    25
100
AcDbLine
 10
1574.037447
 20
1920.36093
 30
0.0
 11
1573.448086
 21
1920.287096
 31
0.0
  0
LINE
  5
455
330
41E
100
AcDbEntity
  8
LC-002-002-----0
 62
     7
370
    25
100
AcDbLine
 10
1573.448086
 20
1920.287096
 30
0.0
 11
1573.448086
 21
1920.287096
 31
0.0
  0
LINE
  5
456
330
41E
100
AcDbEntity
  8
LC-002-002-----0
 62
     7
370
    25
100
AcDbLine
 10
1573.448086
 20
1920.287096
 30
0.0
 11
1572.903187
 21
1920.195165
 31
0.0
  0
LINE
  5
457
330
41E
100
AcDbEntity
  8
LC-002-002-----0
 62
     7
370
    25
100
AcDbLine
 10
1572.903187
 20
1920.195165
 30
0.0
 11
1572.903187
 21
1920.195165
 31
0.0
  0
LINE
  5
458
330
41E
100
AcDbEntity
  8
LC-002-002-----0
 62
     7
370
    25
100
AcDbLine
 10
1572.903187
 20
1920.195165
 30
0.0
 11
1572.40856
 21
1920.085888
 31
0.0
  0
LINE
  5
459
330
41E
100
AcDbEntity
  8
LC-002-002-----0
 62
     7
370
    25
100
AcDbLine
 10
1572.40856
 20
1920.085888
 30
0.0
 11
1572.40856
 21
1920.085888
 31
0.0
  0
LINE
  5
45A
330
41E
100
AcDbEntity
  8
LC-002-002-----0
 62
     7
370
    25
100
AcDbLine
 10
1572.40856
 20
1920.085888
 30
0.0
 11
1571.965901
 21
1919.960036
 31
0.0
  0
LINE
  5
45B
330
41E
100
AcDbEntity
  8
LC-002-002-----0
 62
     7
370
    25
100
AcDbLine
 10
1571.965901
 20
1919.960036
 30
0.0
 11
1571.965901
 21
1919.960036
 31
0.0
  0
LINE
  5
45C
330
41E
100
AcDbEntity
  8
LC-002-002-----0
 62
     7
370
    25
100
AcDbLine
 10
1571.965901
 20
1919.960036
 30
0.0
 11
1571.572537
 21
1919.817657
 31
0.0
  0
LINE
  5
45D
330
41E
100
AcDbEntity
  8
LC-002-002-----0
 62
     7
370
    25
100
AcDbLine
 10
1571.572537
 20
1919.817657
 30
0.0
 11
1571.572537
 21
1919.817657
 31
0.0
  0
LINE
  5
45E
330
41E
100
AcDbEntity
  8
LC-002-002-----0
 62
     7
370
    25
100
AcDbLine
 10
1571.572537
 20
1919.817657
 30
0.0
 11
1571.224002
 21
1919.657223
 31
0.0
  0
LINE
  5
45F
330
41E
100
AcDbEntity
  8
LC-002-002-----0
 62
     7
370
    25
100
AcDbLine
 10
1571.224002
 20
1919.657223
 30
0.0
 11
1571.224002
 21
1919.657223
 31
0.0
  0
LINE
  5
460
330
41E
100
AcDbEntity
  8
LC-002-002-----0
 62
     7
370
    25
100
AcDbLine
 10
1571.224002
 20
1919.657223
 30
0.0
 11
1570.918265
 21
1919.474771
 31
0.0
  0
LINE
  5
461
330
41E
100
AcDbEntity
  8
LC-002-002-----0
 62
     7
370
    25
100
AcDbLine
 10
1570.918265
 20
1919.474771
 30
0.0
 11
1570.918265
 21
1919.474771
 31
0.0
  0
LINE
  5
462
330
41E
100
AcDbEntity
  8
LC-002-002-----0
 62
     7
370
    25
100
AcDbLine
 10
1570.918265
 20
1919.474771
 30
0.0
 11
1570.656399
 21
1919.264857
 31
0.0
  0
LINE
  5
463
330
41E
100
AcDbEntity
  8
LC-002-002-----0
 62
     7
370
    25
100
AcDbLine
 10
1570.656399
 20
1919.264857
 30
0.0
 11
1570.656399
 21
1919.264857
 31
0.0
  0
LINE
  5
464
330
41E
100
AcDbEntity
  8
LC-002-002-----0
 62
     7
370
    25
100
AcDbLine
 10
1570.656399
 20
1919.264857
 30
0.0
 11
1570.453869
 21
1919.02793
 31
0.0
  0
LINE
  5
465
330
41E
100
AcDbEntity
  8
LC-002-002-----0
 62
     7
370
    25
100
AcDbLine
 10
1570.453869
 20
1919.02793
 30
0.0
 11
1570.453869
 21
1919.02793
 31
0.0
  0
LINE
  5
466
330
41E
100
AcDbEntity
  8
LC-002-002-----0
 62
     7
370
    25
100
AcDbLine
 10
1570.453869
 20
1919.02793
 30
0.0
 11
1570.330506
 21
1918.777026
 31
0.0
  0
LINE
  5
467
330
41E
100
AcDbEntity
  8
LC-002-002-----0
 62
     7
370
    25
100
AcDbLine
 10
1570.330506
 20
1918.777026
 30
0.0
 11
1570.330506
 21
1918.777026
 31
0.0
  0
LINE
  5
468
330
41E
100
AcDbEntity
  8
LC-002-002-----0
 62
     7
370
    25
100
AcDbLine
 10
1570.330506
 20
1918.777026
 30
0.0
 11
1570.290848
 21
1918.53
 31
0.0
  0
ENDBLK
  5
420
330
41E
100
AcDbEntity
  8
0
100
AcDbBlockEnd
  0
BLOCK
  5
47F
330
47E
100
AcDbEntity
  8
0
100
AcDbBlockBegin
  2
LCDIM1
 70
     0
 71
     0
 10
0.0
 20
0.0
 30
0.0
  3
LCDIM1
  1

  4
LCDIM1
  0
LINE
  5
482
330
47E
100
AcDbEntity
  8
LC-008-003-MTH-0
 62
     7
370
    25
100
AcDbLine
 10
634.907417
 20
2437.296484
 30
0.0
 11
634.907417
 21
2565.0
 31
0.0
  0
LINE
  5
483
330
47E
100
AcDbEntity
  8
LC-008-003-MTH-0
 62
     7
370
    25
100
AcDbLine
 10
959.666279
 20
2437.296484
 30
0.0
 11
959.666279
 21
2565.0
 31
0.0
  0
LINE
  5
485
330
47E
100
AcDbEntity
  8
LC-009-003-MTG-0
 62
     7
370
    25
100
AcDbLine
 10
634.907417
 20
2550.0
 30
0.0
 11
959.666279
 21
2550.0
 31
0.0
  0
LINE
  5
487
330
47E
100
AcDbEntity
  8
LC-010-003-----0
 62
     7
370
    25
100
AcDbLine
 10
659.693539
 20
2553.263155
 30
0.0
 11
634.907417
 21
2550.0
 31
0.0
  0
LINE
  5
488
330
47E
100
AcDbEntity
  8
LC-010-003-----0
 62
     7
370
    25
100
AcDbLine
 10
634.907417
 20
2550.0
 30
0.0
 11
659.693539
 21
2546.736845
 31
0.0
  0
LINE
  5
489
330
47E
100
AcDbEntity
  8
LC-010-003-----0
 62
     7
370
    25
100
AcDbLine
 10
659.693539
 20
2546.736845
 30
0.0
 11
659.693539
 21
2553.263155
 31
0.0
  0
LINE
  5
48A
330
47E
100
AcDbEntity
  8
LC-010-003-----0
 62
     7
370
    25
100
AcDbLine
 10
659.749148
 20
2552.414735
 30
0.0
 11
641.407417
 21
2550.0
 31
0.0
  0
LINE
  5
48B
330
47E
100
AcDbEntity
  8
LC-010-003-----0
 62
     7
370
    25
100
AcDbLine
 10
641.407417
 20
2550.0
 30
0.0
 11
659.749148
 21
2547.585265
 31
0.0
  0
LINE
  5
48C
330
47E
100
AcDbEntity
  8
LC-010-003-----0
 62
     7
370
    25
100
AcDbLine
 10
659.804756
 20
2551.566314
 30
0.0
 11
647.907418
 21
2550.0
 31
0.0
  0
LINE
  5
48D
330
47E
100
AcDbEntity
  8
LC-010-003-----0
 62
     7
370
    25
100
AcDbLine
 10
647.907418
 20
2550.0
 30
0.0
 11
659.804756
 21
2548.433686
 31
0.0
  0
LINE
  5
48E
330
47E
100
AcDbEntity
  8
LC-010-003-----0
 62
     7
370
    25
100
AcDbLine
 10
659.860364
 20
2550.717894
 30
0.0
 11
654.407418
 21
2550.0
 31
0.0
  0
LINE
  5
48F
330
47E
100
AcDbEntity
  8
LC-010-003-----0
 62
     7
370
    25
100
AcDbLine
 10
654.407418
 20
2550.0
 30
0.0
 11
659.860364
 21
2549.282106
 31
0.0
  0
LINE
  5
490
330
47E
100
AcDbEntity
  8
LC-010-003-----0
 62
     7
370
    25
100
AcDbLine
 10
934.880157
 20
2546.736845
 30
0.0
 11
959.666279
 21
2550.0
 31
0.0
  0
LINE
  5
491
330
47E
100
AcDbEntity
  8
LC-010-003-----0
 62
     7
370
    25
100
AcDbLine
 10
959.666279
 20
2550.0
 30
0.0
 11
934.880157
 21
2553.263155
 31
0.0
  0
LINE
  5
492
330
47E
100
AcDbEntity
  8
LC-010-003-----0
 62
     7
370
    25
100
AcDbLine
 10
934.880157
 20
2553.263155
 30
0.0
 11
934.880157
 21
2546.736845
 31
0.0
  0
LINE
  5
493
330
47E
100
AcDbEntity
  8
LC-010-003-----0
 62
     7
370
    25
100
AcDbLine
 10
934.824549
 20
2547.585265
 30
0.0
 11
953.166279
 21
2550.0
 31
0.0
  0
LINE
  5
494
330
47E
100
AcDbEntity
  8
LC-010-003-----0
 62
     7
370
    25
100
AcDbLine
 10
953.166279
 20
2550.0
 30
0.0
 11
934.824549
 21
2552.414735
 31
0.0
  0
LINE
  5
495
330
47E
100
AcDbEntity
  8
LC-010-003-----0
 62
     7
370
    25
100
AcDbLine
 10
934.76894
 20
2548.433686
 30
0.0
 11
946.666279
 21
2550.0
 31
0.0
  0
LINE
  5
496
330
47E
100
AcDbEntity
  8
LC-010-003-----0
 62
     7
370
    25
100
AcDbLine
 10
946.666279
 20
2550.0
 30
0.0
 11
934.76894
 21
2551.566314
 31
0.0
  0
LINE
  5
497
330
47E
100
AcDbEntity
  8
LC-010-003-----0
 62
     7
370
    25
100
AcDbLine
 10
934.713332
 20
2549.282106
 30
0.0
 11
940.166279
 21
2550.0
 31
0.0
  0
LINE
  5
498
330
47E
100
AcDbEntity
  8
LC-010-003-----0
 62
     7
370
    25
100
AcDbLine
 10
940.166279
 20
2550.0
 30
0.0
 11
934.713332
 21
2550.717894
 31
0.0
  0
TEXT
  5
499
330
47E
100
AcDbEntity
  8
LC-010-003-----0
 62
     7
370
    25
100
AcDbText
 10
749.780221
 20
2565.0
 30
0.0
 40
25.0
  1
12.79
 41
0.7
  7
LCTX0-400-0-0pDIN-Schrift
 72
     1
 11
788.113554
 21
2565.0
 31
0.0
100
AcDbText
  0
ENDBLK
  5
480
330
47E
100
AcDbEntity
  8
0
100
AcDbBlockEnd
  0
BLOCK
  5
49C
330
49B
100
AcDbEntity
  8
0
100
AcDbBlockBegin
  2
LCDIM2
 70
     0
 71
     0
 10
0.0
 20
0.0
 30
0.0
  3
LCDIM2
  1

  4
LCDIM2
  0
LINE
  5
49E
330
49B
100
AcDbEntity
  8
LC-008-003-MTH-0
 62
     7
370
    25
100
AcDbLine
 10
735.286848
 20
2269.296484
 30
0.0
 11
765.0
 21
2269.296484
 31
0.0
  0
LINE
  5
49F
330
49B
100
AcDbEntity
  8
LC-008-003-MTH-0
 62
     7
370
    25
100
AcDbLine
 10
735.286848
 20
2437.296484
 30
0.0
 11
765.0
 21
2437.296484
 31
0.0
  0
LINE
  5
4A0
330
49B
100
AcDbEntity
  8
LC-009-003-MTG-0
 62
     7
370
    25
100
AcDbLine
 10
750.0
 20
2269.296484
 30
0.0
 11
750.0
 21
2437.296484
 31
0.0
  0
LINE
  5
4A1
330
49B
100
AcDbEntity
  8
LC-010-003-----0
 62
     7
370
    25
100
AcDbLine
 10
746.736845
 20
2294.082606
 30
0.0
 11
750.0
 21
2269.296484
 31
0.0
  0
LINE
  5
4A2
330
49B
100
AcDbEntity
  8
LC-010-003-----0
 62
     7
370
    25
100
AcDbLine
 10
750.0
 20
2269.296484
 30
0.0
 11
753.263155
 21
2294.082606
 31
0.0
  0
LINE
  5
4A3
330
49B
100
AcDbEntity
  8
LC-010-003-----0
 62
     7
370
    25
100
AcDbLine
 10
753.263155
 20
2294.082606
 30
0.0
 11
746.736845
 21
2294.082606
 31
0.0
  0
LINE
  5
4A4
330
49B
100
AcDbEntity
  8
LC-010-003-----0
 62
     7
370
    25
100
AcDbLine
 10
747.585265
 20
2294.138215
 30
0.0
 11
750.0
 21
2275.796485
 31
0.0
  0
LINE
  5
4A5
330
49B
100
AcDbEntity
  8
LC-010-003-----0
 62
     7
370
    25
100
AcDbLine
 10
750.0
 20
2275.796485
 30
0.0
 11
752.414735
 21
2294.138215
 31
0.0
  0
LINE
  5
4A6
330
49B
100
AcDbEntity
  8
LC-010-003-----0
 62
     7
370
    25
100
AcDbLine
 10
748.433686
 20
2294.193823
 30
0.0
 11
750.0
 21
2282.296485
 31
0.0
  0
LINE
  5
4A7
330
49B
100
AcDbEntity
  8
LC-010-003-----0
 62
     7
370
    25
100
AcDbLine
 10
750.0
 20
2282.296485
 30
0.0
 11
751.566314
 21
2294.193823
 31
0.0
  0
LINE
  5
4A8
330
49B
100
AcDbEntity
  8
LC-010-003-----0
 62
     7
370
    25
100
AcDbLine
 10
749.282106
 20
2294.249432
 30
0.0
 11
750.0
 21
2288.796485
 31
0.0
  0
LINE
  5
4A9
330
49B
100
AcDbEntity
  8
LC-010-003-----0
 62
     7
370
    25
100
AcDbLine
 10
750.0
 20
2288.796485
 30
0.0
 11
750.717894
 21
2294.249432
 31
0.0
  0
LINE
  5
4AA
330
49B
100
AcDbEntity
  8
LC-010-003-----0
 62
     7
370
    25
100
AcDbLine
 10
753.263155
 20
2412.510363
 30
0.0
 11
750.0
 21
2437.296484
 31
0.0
  0
LINE
  5
4AB
330
49B
100
AcDbEntity
  8
LC-010-003-----0
 62
     7
370
    25
100
AcDbLine
 10
750.0
 20
2437.296484
 30
0.0
 11
746.736845
 21
2412.510363
 31
0.0
  0
LINE
  5
4AC
330
49B
100
AcDbEntity
  8
LC-010-003-----0
 62
     7
370
    25
100
AcDbLine
 10
746.736845
 20
2412.510363
 30
0.0
 11
753.263155
 21
2412.510363
 31
0.0
  0
LINE
  5
4AD
330
49B
100
AcDbEntity
  8
LC-010-003-----0
 62
     7
370
    25
100
AcDbLine
 10
752.414735
 20
2412.454754
 30
0.0
 11
750.0
 21
2430.796484
 31
0.0
  0
LINE
  5
4AE
330
49B
100
AcDbEntity
  8
LC-010-003-----0
 62
     7
370
    25
100
AcDbLine
 10
750.0
 20
2430.796484
 30
0.0
 11
747.585265
 21
2412.454754
 31
0.0
  0
LINE
  5
4AF
330
49B
100
AcDbEntity
  8
LC-010-003-----0
 62
     7
370
    25
100
AcDbLine
 10
751.566314
 20
2412.399146
 30
0.0
 11
750.0
 21
2424.296484
 31
0.0
  0
LINE
  5
4B0
330
49B
100
AcDbEntity
  8
LC-010-003-----0
 62
     7
370
    25
100
AcDbLine
 10
750.0
 20
2424.296484
 30
0.0
 11
748.433686
 21
2412.399146
 31
0.0
  0
LINE
  5
4B1
330
49B
100
AcDbEntity
  8
LC-010-003-----0
 62
     7
370
    25
100
AcDbLine
 10
750.717894
 20
2412.343537
 30
0.0
 11
750.0
 21
2417.796484
 31
0.0
  0
LINE
  5
4B2
330
49B
100
AcDbEntity
  8
LC-010-003-----0
 62
     7
370
    25
100
AcDbLine
 10
750.0
 20
2417.796484
 30
0.0
 11
749.282106
 21
2412.343537
 31
0.0
  0
TEXT
  5
4B3
330
49B
100
AcDbEntity
  8
LC-010-003-----0
 62
     7
370
    25
100
AcDbText
 10
735.0
 20
2336.956749
 30
0.0
 40
25.0
  1
6.61
 50
90.0
 41
0.7
  7
LCTX0-400-0-0pDIN-Schrift
 72
     1
 11
735.0
 21
2364.040083
 31
0.0
100
AcDbText
  0
ENDBLK
  5
49D
330
49B
100
AcDbEntity
  8
0
100
AcDbBlockEnd
  0
BLOCK
  5
4B6
330
4B5
100
AcDbEntity
  8
0
100
AcDbBlockBegin
  2
LCDIM3
 70
     0
 71
     0
 10
0.0
 20
0.0
 30
0.0
  3
LCDIM3
  1

  4
LCDIM3
  0
LINE
  5
4B8
330
4B5
100
AcDbEntity
  8
LC-008-003-MTH-0
 62
     7
370
    25
100
AcDbLine
 10
608.521995
 20
1636.265146
 30
0.0
 11
608.521995
 21
1485.0
 31
0.0
  0
LINE
  5
4B9
330
4B5
100
AcDbEntity
  8
LC-008-003-MTH-0
 62
     7
370
    25
100
AcDbLine
 10
986.051702
 20
1636.265146
 30
0.0
 11
986.051702
 21
1485.0
 31
0.0
  0
LINE
  5
4BA
330
4B5
100
AcDbEntity
  8
LC-009-003-MTG-0
 62
     7
370
    25
100
AcDbLine
 10
608.521995
 20
1500.0
 30
0.0
 11
986.051702
 21
1500.0
 31
0.0
  0
LINE
  5
4BB
330
4B5
100
AcDbEntity
  8
LC-010-003-----0
 62
     7
370
    25
100
AcDbLine
 10
633.308116
 20
1503.263155
 30
0.0
 11
608.521995
 21
1500.0
 31
0.0
  0
LINE
  5
4BC
330
4B5
100
AcDbEntity
  8
LC-010-003-----0
 62
     7
370
    25
100
AcDbLine
 10
608.521995
 20
1500.0
 30
0.0
 11
633.308116
 21
1496.736845
 31
0.0
  0
LINE
  5
4BD
330
4B5
100
AcDbEntity
  8
LC-010-003-----0
 62
     7
370
    25
100
AcDbLine
 10
633.308116
 20
1496.736845
 30
0.0
 11
633.308116
 21
1503.263155
 31
0.0
  0
LINE
  5
4BE
330
4B5
100
AcDbEntity
  8
LC-010-003-----0
 62
     7
370
    25
100
AcDbLine
 10
633.363725
 20
1502.414735
 30
0.0
 11
615.021995
 21
1500.0
 31
0.0
  0
LINE
  5
4BF
330
4B5
100
AcDbEntity
  8
LC-010-003-----0
 62
     7
370
    25
100
AcDbLine
 10
615.021995
 20
1500.0
 30
0.0
 11
633.363725
 21
1497.585265
 31
0.0
  0
LINE
  5
4C0
330
4B5
100
AcDbEntity
  8
LC-010-003-----0
 62
     7
370
    25
100
AcDbLine
 10
633.419333
 20
1501.566314
 30
0.0
 11
621.521995
 21
1500.0
 31
0.0
  0
LINE
  5
4C1
330
4B5
100
AcDbEntity
  8
LC-010-003-----0
 62
     7
370
    25
100
AcDbLine
 10
621.521995
 20
1500.0
 30
0.0
 11
633.419333
 21
1498.433686
 31
0.0
  0
LINE
  5
4C2
330
4B5
100
AcDbEntity
  8
LC-010-003-----0
 62
     7
370
    25
100
AcDbLine
 10
633.474942
 20
1500.717894
 30
0.0
 11
628.021995
 21
1500.0
 31
0.0
  0
LINE
  5
4C3
330
4B5
100
AcDbEntity
  8
LC-010-003-----0
 62
     7
370
    25
100
AcDbLine
 10
628.021995
 20
1500.0
 30
0.0
 11
633.474942
 21
1499.282106
 31
0.0
  0
LINE
  5
4C4
330
4B5
100
AcDbEntity
  8
LC-010-003-----0
 62
     7
370
    25
100
AcDbLine
 10
961.26558
 20
1496.736845
 30
0.0
 11
986.051702
 21
1500.0
 31
0.0
  0
LINE
  5
4C5
330
4B5
100
AcDbEntity
  8
LC-010-003-----0
 62
     7
370
    25
100
AcDbLine
 10
986.051702
 20
1500.0
 30
0.0
 11
961.26558
 21
1503.263155
 31
0.0
  0
LINE
  5
4C6
330
4B5
100
AcDbEntity
  8
LC-010-003-----0
 62
     7
370
    25
100
AcDbLine
 10
961.26558
 20
1503.263155
 30
0.0
 11
961.26558
 21
1496.736845
 31
0.0
  0
LINE
  5
4C7
330
4B5
100
AcDbEntity
  8
LC-010-003-----0
 62
     7
370
    25
100
AcDbLine
 10
961.209972
 20
1497.585265
 30
0.0
 11
979.551702
 21
1500.0
 31
0.0
  0
LINE
  5
4C8
330
4B5
100
AcDbEntity
  8
LC-010-003-----0
 62
     7
370
    25
100
AcDbLine
 10
979.551702
 20
1500.0
 30
0.0
 11
961.209972
 21
1502.414735
 31
0.0
  0
LINE
  5
4C9
330
4B5
100
AcDbEntity
  8
LC-010-003-----0
 62
     7
370
    25
100
AcDbLine
 10
961.154363
 20
1498.433686
 30
0.0
 11
973.051702
 21
1500.0
 31
0.0
  0
LINE
  5
4CA
330
4B5
100
AcDbEntity
  8
LC-010-003-----0
 62
     7
370
    25
100
AcDbLine
 10
973.051702
 20
1500.0
 30
0.0
 11
961.154363
 21
1501.566314
 31
0.0
  0
LINE
  5
4CB
330
4B5
100
AcDbEntity
  8
LC-010-003-----0
 62
     7
370
    25
100
AcDbLine
 10
961.098755
 20
1499.282106
 30
0.0
 11
966.551702
 21
1500.0
 31
0.0
  0
LINE
  5
4CC
330
4B5
100
AcDbEntity
  8
LC-010-003-----0
 62
     7
370
    25
100
AcDbLine
 10
966.551702
 20
1500.0
 30
0.0
 11
961.098755
 21
1500.717894
 31
0.0
  0
TEXT
  5
4CD
330
4B5
100
AcDbEntity
  8
LC-010-003-----0
 62
     7
370
    25
100
AcDbText
 10
754.71125
 20
1515.0
 30
0.0
 40
25.0
  1
14.86
 41
0.7
  7
LCTX0-400-0-0pDIN-Schrift
 72
     1
 11
793.46125
 21
1515.0
 31
0.0
100
AcDbText
  0
ENDBLK
  5
4B7
330
4B5
100
AcDbEntity
  8
0
100
AcDbBlockEnd
  0
BLOCK
  5
4D0
330
4CF
100
AcDbEntity
  8
0
100
AcDbBlockBegin
  2
LCDIM4
 70
     0
 71
     0
 10
0.0
 20
0.0
 30
0.0
  3
LCDIM4
  1

  4
LCDIM4
  0
LINE
  5
4D2
330
4CF
100
AcDbEntity
  8
LC-008-003-MTH-0
 62
     7
370
    25
100
AcDbLine
 10
940.051702
 20
1590.265146
 30
0.0
 11
1115.0
 21
1590.265146
 31
0.0
  0
LINE
  5
4D3
330
4CF
100
AcDbEntity
  8
LC-008-003-MTH-0
 62
     7
370
    25
100
AcDbLine
 10
940.051702
 20
1967.794854
 30
0.0
 11
1115.0
 21
1967.794854
 31
0.0
  0
LINE
  5
4D4
330
4CF
100
AcDbEntity
  8
LC-009-003-MTG-0
 62
     7
370
    25
100
AcDbLine
 10
1100.0
 20
1590.265146
 30
0.0
 11
1100.0
 21
1967.794854
 31
0.0
  0
LINE
  5
4D5
330
4CF
100
AcDbEntity
  8
LC-010-003-----0
 62
     7
370
    25
100
AcDbLine
 10
1096.736845
 20
1615.051268
 30
0.0
 11
1100.0
 21
1590.265146
 31
0.0
  0
LINE
  5
4D6
330
4CF
100
AcDbEntity
  8
LC-010-003-----0
 62
     7
370
    25
100
AcDbLine
 10
1100.0
 20
1590.265146
 30
0.0
 11
1103.263155
 21
1615.051268
 31
0.0
  0
LINE
  5
4D7
330
4CF
100
AcDbEntity
  8
LC-010-003-----0
 62
     7
370
    25
100
AcDbLine
 10
1103.263155
 20
1615.051268
 30
0.0
 11
1096.736845
 21
1615.051268
 31
0.0
  0
LINE
  5
4D8
330
4CF
100
AcDbEntity
  8
LC-010-003-----0
 62
     7
370
    25
100
AcDbLine
 10
1097.585265
 20
1615.106877
 30
0.0
 11
1100.0
 21
1596.765146
 31
0.0
  0
LINE
  5
4D9
330
4CF
100
AcDbEntity
  8
LC-010-003-----0
 62
     7
370
    25
100
AcDbLine
 10
1100.0
 20
1596.765146
 30
0.0
 11
1102.414735
 21
1615.106877
 31
0.0
  0
LINE
  5
4DA
330
4CF
100
AcDbEntity
  8
LC-010-003-----0
 62
     7
370
    25
100
AcDbLine
 10
1098.433686
 20
1615.162485
 30
0.0
 11
1100.0
 21
1603.265147
 31
0.0
  0
LINE
  5
4DB
330
4CF
100
AcDbEntity
  8
LC-010-003-----0
 62
     7
370
    25
100
AcDbLine
 10
1100.0
 20
1603.265147
 30
0.0
 11
1101.566314
 21
1615.162485
 31
0.0
  0
LINE
  5
4DC
330
4CF
100
AcDbEntity
  8
LC-010-003-----0
 62
     7
370
    25
100
AcDbLine
 10
1099.282106
 20
1615.218093
 30
0.0
 11
1100.0
 21
1609.765147
 31
0.0
  0
LINE
  5
4DD
330
4CF
100
AcDbEntity
  8
LC-010-003-----0
 62
     7
370
    25
100
AcDbLine
 10
1100.0
 20
1609.765147
 30
0.0
 11
1100.717894
 21
1615.218093
 31
0.0
  0
LINE
  5
4DE
330
4CF
100
AcDbEntity
  8
LC-010-003-----0
 62
     7
370
    25
100
AcDbLine
 10
1103.263155
 20
1943.008732
 30
0.0
 11
1100.0
 21
1967.794854
 31
0.0
  0
LINE
  5
4DF
330
4CF
100
AcDbEntity
  8
LC-010-003-----0
 62
     7
370
    25
100
AcDbLine
 10
1100.0
 20
1967.794854
 30
0.0
 11
1096.736845
 21
1943.008732
 31
0.0
  0
LINE
  5
4E0
330
4CF
100
AcDbEntity
  8
LC-010-003-----0
 62
     7
370
    25
100
AcDbLine
 10
1096.736845
 20
1943.008732
 30
0.0
 11
1103.263155
 21
1943.008732
 31
0.0
  0
LINE
  5
4E1
330
4CF
100
AcDbEntity
  8
LC-010-003-----0
 62
     7
370
    25
100
AcDbLine
 10
1102.414735
 20
1942.953123
 30
0.0
 11
1100.0
 21
1961.294854
 31
0.0
  0
LINE
  5
4E2
330
4CF
100
AcDbEntity
  8
LC-010-003-----0
 62
     7
370
    25
100
AcDbLine
 10
1100.0
 20
1961.294854
 30
0.0
 11
1097.585265
 21
1942.953123
 31
0.0
  0
LINE
  5
4E3
330
4CF
100
AcDbEntity
  8
LC-010-003-----0
 62
     7
370
    25
100
AcDbLine
 10
1101.566314
 20
1942.897515
 30
0.0
 11
1100.0
 21
1954.794853
 31
0.0
  0
LINE
  5
4E4
330
4CF
100
AcDbEntity
  8
LC-010-003-----0
 62
     7
370
    25
100
AcDbLine
 10
1100.0
 20
1954.794853
 30
0.0
 11
1098.433686
 21
1942.897515
 31
0.0
  0
LINE
  5
4E5
330
4CF
100
AcDbEntity
  8
LC-010-003-----0
 62
     7
370
    25
100
AcDbLine
 10
1100.717894
 20
1942.841907
 30
0.0
 11
1100.0
 21
1948.294853
 31
0.0
  0
LINE
  5
4E6
330
4CF
100
AcDbEntity
  8
LC-010-003-----0
 62
     7
370
    25
100
AcDbLine
 10
1100.0
 20
1948.294853
 30
0.0
 11
1099.282106
 21
1942.841907
 31
0.0
  0
TEXT
  5
4E7
330
4CF
100
AcDbEntity
  8
LC-010-003-----0
 62
     7
370
    25
100
AcDbText
 10
1085.0
 20
1737.492596
 30
0.0
 40
25.0
  1
14.86
 50
90.0
 41
0.7
  7
LCTX0-400-0-0pDIN-Schrift
 72
     1
 11
1085.0
 21
1776.242596
 31
0.0
100
AcDbText
  0
ENDBLK
  5
4D1
330
4CF
100
AcDbEntity
  8
0
100
AcDbBlockEnd
  0
BLOCK
  5
4EA
330
4E9
100
AcDbEntity
  8
0
100
AcDbBlockBegin
  2
LCDIM5
 70
     0
 71
     0
 10
0.0
 20
0.0
 30
0.0
  3
LCDIM5
  1

  4
LCDIM5
  0
TEXT
  5
4EC
330
4E9
100
AcDbEntity
  8
LC-010-003-----0
 62
     7
370
    25
100
AcDbText
 10
570.259671
 20
2079.571564
 30
0.0
 40
25.0
  1
R1.81
 50
302.915436
 41
0.7
  7
LCTX0-400-0-0pDIN-Schrift
 72
     2
 11
607.392047
 21
2022.207541
 31
0.0
100
AcDbText
  0
LINE
  5
4ED
330
4E9
100
AcDbEntity
  8
LC-009-003-MTG-0
 62
     7
370
    25
100
AcDbLine
 10
568.274193
 20
2055.034889
 30
0.0
 11
629.525555
 21
1960.410628
 31
0.0
  0
LINE
  5
4EE
330
4E9
100
AcDbEntity
  8
LC-010-003-----0
 62
     7
370
    25
100
AcDbLine
 10
613.317427
 20
1979.444718
 30
0.0
 11
629.525555
 21
1960.410628
 31
0.0
  0
LINE
  5
4EF
330
4E9
100
AcDbEntity
  8
LC-010-003-----0
 62
     7
370
    25
100
AcDbLine
 10
629.525555
 20
1960.410628
 30
0.0
 11
618.796091
 21
1982.991119
 31
0.0
  0
LINE
  5
4F0
330
4E9
100
AcDbEntity
  8
LC-010-003-----0
 62
     7
370
    25
100
AcDbLine
 10
618.796091
 20
1982.991119
 30
0.0
 11
613.317427
 21
1979.444718
 31
0.0
  0
LINE
  5
4F1
330
4E9
100
AcDbEntity
  8
LC-010-003-----0
 62
     7
370
    25
100
AcDbLine
 10
613.999436
 20
1979.952432
 30
0.0
 11
625.993451
 21
1965.867205
 31
0.0
  0
LINE
  5
4F2
330
4E9
100
AcDbEntity
  8
LC-010-003-----0
 62
     7
370
    25
100
AcDbLine
 10
625.993451
 20
1965.867205
 30
0.0
 11
618.053647
 21
1982.576769
 31
0.0
  0
LINE
  5
4F3
330
4E9
100
AcDbEntity
  8
LC-010-003-----0
 62
     7
370
    25
100
AcDbLine
 10
614.681445
 20
1980.460146
 30
0.0
 11
622.461346
 21
1971.323783
 31
0.0
  0
LINE
  5
4F4
330
4E9
100
AcDbEntity
  8
LC-010-003-----0
 62
     7
370
    25
100
AcDbLine
 10
622.461346
 20
1971.323783
 30
0.0
 11
617.311203
 21
1982.162419
 31
0.0
  0
LINE
  5
4F5
330
4E9
100
AcDbEntity
  8
LC-010-003-----0
 62
     7
370
    25
100
AcDbLine
 10
615.363453
 20
1980.96786
 30
0.0
 11
618.929241
 21
1976.78036
 31
0.0
  0
LINE
  5
4F6
330
4E9
100
AcDbEntity
  8
LC-010-003-----0
 62
     7
370
    25
100
AcDbLine
 10
618.929241
 20
1976.78036
 30
0.0
 11
616.568759
 21
1981.748068
 31
0.0
  0
ENDBLK
  5
4EB
330
4E9
100
AcDbEntity
  8
0
100
AcDbBlockEnd
  0
BLOCK
  5
4F9
330
4F8
100
AcDbEntity
  8
0
100
AcDbBlockBegin
  2
LCDIM6
 70
     0
 71
     0
 10
0.0
 20
0.0
 30
0.0
  3
LCDIM6
  1

  4
LCDIM6
  0
TEXT
  5
4FB
330
4F8
100
AcDbEntity
  8
LC-010-003-----0
 62
     7
370
    25
100
AcDbText
 10
505.60373
 20
2001.822699
 30
0.0
 40
25.0
  1
R.79
 50
336.768219
 41
0.7
  7
LCTX0-400-0-0pDIN-Schrift
 72
     2
 11
556.909911
 21
1979.799147
 31
0.0
100
AcDbText
  0
LINE
  5
4FC
330
4F8
100
AcDbEntity
  8
LC-009-003-MTG-0
 62
     7
370
    25
100
AcDbLine
 10
509.682237
 20
1983.7484
 30
0.0
 11
636.529084
 21
1929.298465
 31
0.0
  0
LINE
  5
4FD
330
4F8
100
AcDbEntity
  8
LC-010-003-----0
 62
     7
370
    25
100
AcDbLine
 10
612.465546
 20
1936.076825
 30
0.0
 11
636.529084
 21
1929.298465
 31
0.0
  0
LINE
  5
4FE
330
4F8
100
AcDbEntity
  8
LC-010-003-----0
 62
     7
370
    25
100
AcDbLine
 10
636.529084
 20
1929.298465
 30
0.0
 11
615.03986
 21
1942.07396
 31
0.0
  0
LINE
  5
4FF
330
4F8
100
AcDbEntity
  8
LC-010-003-----0
 62
     7
370
    25
100
AcDbLine
 10
615.03986
 20
1942.07396
 30
0.0
 11
612.465546
 21
1936.076825
 31
0.0
  0
LINE
  5
500
330
4F8
100
AcDbEntity
  8
LC-010-003-----0
 62
     7
370
    25
100
AcDbLine
 10
612.749108
 20
1936.878388
 30
0.0
 11
630.556125
 21
1931.862401
 31
0.0
  0
LINE
  5
501
330
4F8
100
AcDbEntity
  8
LC-010-003-----0
 62
     7
370
    25
100
AcDbLine
 10
630.556125
 20
1931.862401
 30
0.0
 11
614.6541
 21
1941.316267
 31
0.0
  0
LINE
  5
502
330
4F8
100
AcDbEntity
  8
LC-010-003-----0
 62
     7
370
    25
100
AcDbLine
 10
613.032669
 20
1937.67995
 30
0.0
 11
624.583167
 21
1934.426337
 31
0.0
  0
LINE
  5
503
330
4F8
100
AcDbEntity
  8
LC-010-003-----0
 62
     7
370
    25
100
AcDbLine
 10
624.583167
 20
1934.426337
 30
0.0
 11
614.26834
 21
1940.558575
 31
0.0
  0
LINE
  5
504
330
4F8
100
AcDbEntity
  8
LC-010-003-----0
 62
     7
370
    25
100
AcDbLine
 10
613.31623
 20
1938.481512
 30
0.0
 11
618.610209
 21
1936.990273
 31
0.0
  0
LINE
  5
505
330
4F8
100
AcDbEntity
  8
LC-010-003-----0
 62
     7
370
    25
100
AcDbLine
 10
618.610209
 20
1936.990273
 30
0.0
 11
613.882579
 21
1939.800882
 31
0.0
  0
ENDBLK
  5
4FA
330
4F8
100
AcDbEntity
  8
0
100
AcDbBlockEnd
  0
BLOCK
  5
508
330
507
100
AcDbEntity
  8
0
100
AcDbBlockBegin
  2
LCDIM7
 70
     0
 71
     0
 10
0.0
 20
0.0
 30
0.0
  3
LCDIM7
  1

  4
LCDIM7
  0
LINE
  5
50A
330
507
100
AcDbEntity
  8
LC-008-003-MTH-0
 62
     7
370
    25
100
AcDbLine
 10
634.907417
 20
916.324879
 30
0.0
 11
634.907417
 21
785.0
 31
0.0
  0
LINE
  5
50B
330
507
100
AcDbEntity
  8
LC-008-003-MTH-0
 62
     7
370
    25
100
AcDbLine
 10
959.666279
 20
916.324879
 30
0.0
 11
959.666279
 21
785.0
 31
0.0
  0
LINE
  5
50C
330
507
100
AcDbEntity
  8
LC-009-003-MTG-0
 62
     7
370
    25
100
AcDbLine
 10
634.907417
 20
800.0
 30
0.0
 11
959.666279
 21
800.0
 31
0.0
  0
LINE
  5
50D
330
507
100
AcDbEntity
  8
LC-010-003-----0
 62
     7
370
    25
100
AcDbLine
 10
659.693539
 20
803.263155
 30
0.0
 11
634.907417
 21
800.0
 31
0.0
  0
LINE
  5
50E
330
507
100
AcDbEntity
  8
LC-010-003-----0
 62
     7
370
    25
100
AcDbLine
 10
634.907417
 20
800.0
 30
0.0
 11
659.693539
 21
796.736845
 31
0.0
  0
LINE
  5
50F
330
507
100
AcDbEntity
  8
LC-010-003-----0
 62
     7
370
    25
100
AcDbLine
 10
659.693539
 20
796.736845
 30
0.0
 11
659.693539
 21
803.263155
 31
0.0
  0
LINE
  5
510
330
507
100
AcDbEntity
  8
LC-010-003-----0
 62
     7
370
    25
100
AcDbLine
 10
659.749148
 20
802.414735
 30
0.0
 11
641.407417
 21
800.0
 31
0.0
  0
LINE
  5
511
330
507
100
AcDbEntity
  8
LC-010-003-----0
 62
     7
370
    25
100
AcDbLine
 10
641.407417
 20
800.0
 30
0.0
 11
659.749148
 21
797.585265
 31
0.0
  0
LINE
  5
512
330
507
100
AcDbEntity
  8
LC-010-003-----0
 62
     7
370
    25
100
AcDbLine
 10
659.804756
 20
801.566314
 30
0.0
 11
647.907418
 21
800.0
 31
0.0
  0
LINE
  5
513
330
507
100
AcDbEntity
  8
LC-010-003-----0
 62
     7
370
    25
100
AcDbLine
 10
647.907418
 20
800.0
 30
0.0
 11
659.804756
 21
798.433686
 31
0.0
  0
LINE
  5
514
330
507
100
AcDbEntity
  8
LC-010-003-----0
 62
     7
370
    25
100
AcDbLine
 10
659.860364
 20
800.717894
 30
0.0
 11
654.407418
 21
800.0
 31
0.0
  0
LINE
  5
515
330
507
100
AcDbEntity
  8
LC-010-003-----0
 62
     7
370
    25
100
AcDbLine
 10
654.407418
 20
800.0
 30
0.0
 11
659.860364
 21
799.282106
 31
0.0
  0
LINE
  5
516
330
507
100
AcDbEntity
  8
LC-010-003-----0
 62
     7
370
    25
100
AcDbLine
 10
934.880157
 20
796.736845
 30
0.0
 11
959.666279
 21
800.0
 31
0.0
  0
LINE
  5
517
330
507
100
AcDbEntity
  8
LC-010-003-----0
 62
     7
370
    25
100
AcDbLine
 10
959.666279
 20
800.0
 30
0.0
 11
934.880157
 21
803.263155
 31
0.0
  0
LINE
  5
518
330
507
100
AcDbEntity
  8
LC-010-003-----0
 62
     7
370
    25
100
AcDbLine
 10
934.880157
 20
803.263155
 30
0.0
 11
934.880157
 21
796.736845
 31
0.0
  0
LINE
  5
519
330
507
100
AcDbEntity
  8
LC-010-003-----0
 62
     7
370
    25
100
AcDbLine
 10
934.824549
 20
797.585265
 30
0.0
 11
953.166279
 21
800.0
 31
0.0
  0
LINE
  5
51A
330
507
100
AcDbEntity
  8
LC-010-003-----0
 62
     7
370
    25
100
AcDbLine
 10
953.166279
 20
800.0
 30
0.0
 11
934.824549
 21
802.414735
 31
0.0
  0
LINE
  5
51B
330
507
100
AcDbEntity
  8
LC-010-003-----0
 62
     7
370
    25
100
AcDbLine
 10
934.76894
 20
798.433686
 30
0.0
 11
946.666279
 21
800.0
 31
0.0
  0
LINE
  5
51C
330
507
100
AcDbEntity
  8
LC-010-003-----0
 62
     7
370
    25
100
AcDbLine
 10
946.666279
 20
800.0
 30
0.0
 11
934.76894
 21
801.566314
 31
0.0
  0
LINE
  5
51D
330
507
100
AcDbEntity
  8
LC-010-003-----0
 62
     7
370
    25
100
AcDbLine
 10
934.713332
 20
799.282106
 30
0.0
 11
940.166279
 21
800.0
 31
0.0
  0
LINE
  5
51E
330
507
100
AcDbEntity
  8
LC-010-003-----0
 62
     7
370
    25
100
AcDbLine
 10
940.166279
 20
800.0
 30
0.0
 11
934.713332
 21
800.717894
 31
0.0
  0
TEXT
  5
51F
330
507
100
AcDbEntity
  8
LC-010-003-----0
 62
     7
370
    25
100
AcDbText
 10
761.20276
 20
815.0
 30
0.0
 40
25.0
  1
12.79
 41
0.7
  7
LCTX0-400-0-0pDIN-Schrift
 72
     1
 11
799.536093
 21
815.0
 31
0.0
100
AcDbText
  0
ENDBLK
  5
509
330
507
100
AcDbEntity
  8
0
100
AcDbBlockEnd
  0
BLOCK
  5
522
330
521
100
AcDbEntity
  8
0
100
AcDbBlockBegin
  2
LCDIM8
 70
     0
 71
     0
 10
0.0
 20
0.0
 30
0.0
  3
LCDIM8
  1

  4
LCDIM8
  0
LINE
  5
524
330
521
100
AcDbEntity
  8
LC-008-003-MTH-0
 62
     7
370
    25
100
AcDbLine
 10
939.666279
 20
896.324879
 30
0.0
 11
1065.0
 21
896.324879
 31
0.0
  0
LINE
  5
525
330
521
100
AcDbEntity
  8
LC-008-003-MTH-0
 62
     7
370
    25
100
AcDbLine
 10
939.666279
 20
1221.083741
 30
0.0
 11
1065.0
 21
1221.083741
 31
0.0
  0
LINE
  5
526
330
521
100
AcDbEntity
  8
LC-009-003-MTG-0
 62
     7
370
    25
100
AcDbLine
 10
1050.0
 20
896.324879
 30
0.0
 11
1050.0
 21
1221.083741
 31
0.0
  0
LINE
  5
527
330
521
100
AcDbEntity
  8
LC-010-003-----0
 62
     7
370
    25
100
AcDbLine
 10
1046.736845
 20
921.111001
 30
0.0
 11
1050.0
 21
896.324879
 31
0.0
  0
LINE
  5
528
330
521
100
AcDbEntity
  8
LC-010-003-----0
 62
     7
370
    25
100
AcDbLine
 10
1050.0
 20
896.324879
 30
0.0
 11
1053.263155
 21
921.111001
 31
0.0
  0
LINE
  5
529
330
521
100
AcDbEntity
  8
LC-010-003-----0
 62
     7
370
    25
100
AcDbLine
 10
1053.263155
 20
921.111001
 30
0.0
 11
1046.736845
 21
921.111001
 31
0.0
  0
LINE
  5
52A
330
521
100
AcDbEntity
  8
LC-010-003-----0
 62
     7
370
    25
100
AcDbLine
 10
1047.585265
 20
921.16661
 30
0.0
 11
1050.0
 21
902.824879
 31
0.0
  0
LINE
  5
52B
330
521
100
AcDbEntity
  8
LC-010-003-----0
 62
     7
370
    25
100
AcDbLine
 10
1050.0
 20
902.824879
 30
0.0
 11
1052.414735
 21
921.16661
 31
0.0
  0
LINE
  5
52C
330
521
100
AcDbEntity
  8
LC-010-003-----0
 62
     7
370
    25
100
AcDbLine
 10
1048.433686
 20
921.222218
 30
0.0
 11
1050.0
 21
909.32488
 31
0.0
  0
LINE
  5
52D
330
521
100
AcDbEntity
  8
LC-010-003-----0
 62
     7
370
    25
100
AcDbLine
 10
1050.0
 20
909.32488
 30
0.0
 11
1051.566314
 21
921.222218
 31
0.0
  0
LINE
  5
52E
330
521
100
AcDbEntity
  8
LC-010-003-----0
 62
     7
370
    25
100
AcDbLine
 10
1049.282106
 20
921.277826
 30
0.0
 11
1050.0
 21
915.82488
 31
0.0
  0
LINE
  5
52F
330
521
100
AcDbEntity
  8
LC-010-003-----0
 62
     7
370
    25
100
AcDbLine
 10
1050.0
 20
915.82488
 30
0.0
 11
1050.717894
 21
921.277826
 31
0.0
  0
LINE
  5
530
330
521
100
AcDbEntity
  8
LC-010-003-----0
 62
     7
370
    25
100
AcDbLine
 10
1053.263155
 20
1196.297619
 30
0.0
 11
1050.0
 21
1221.083741
 31
0.0
  0
LINE
  5
531
330
521
100
AcDbEntity
  8
LC-010-003-----0
 62
     7
370
    25
100
AcDbLine
 10
1050.0
 20
1221.083741
 30
0.0
 11
1046.736845
 21
1196.297619
 31
0.0
  0
LINE
  5
532
330
521
100
AcDbEntity
  8
LC-010-003-----0
 62
     7
370
    25
100
AcDbLine
 10
1046.736845
 20
1196.297619
 30
0.0
 11
1053.263155
 21
1196.297619
 31
0.0
  0
LINE
  5
533
330
521
100
AcDbEntity
  8
LC-010-003-----0
 62
     7
370
    25
100
AcDbLine
 10
1052.414735
 20
1196.242011
 30
0.0
 11
1050.0
 21
1214.583741
 31
0.0
  0
LINE
  5
534
330
521
100
AcDbEntity
  8
LC-010-003-----0
 62
     7
370
    25
100
AcDbLine
 10
1050.0
 20
1214.583741
 30
0.0
 11
1047.585265
 21
1196.242011
 31
0.0
  0
LINE
  5
535
330
521
100
AcDbEntity
  8
LC-010-003-----0
 62
     7
370
    25
100
AcDbLine
 10
1051.566314
 20
1196.186402
 30
0.0
 11
1050.0
 21
1208.083741
 31
0.0
  0
LINE
  5
536
330
521
100
AcDbEntity
  8
LC-010-003-----0
 62
     7
370
    25
100
AcDbLine
 10
1050.0
 20
1208.083741
 30
0.0
 11
1048.433686
 21
1196.186402
 31
0.0
  0
LINE
  5
537
330
521
100
AcDbEntity
  8
LC-010-003-----0
 62
     7
370
    25
100
AcDbLine
 10
1050.717894
 20
1196.130794
 30
0.0
 11
1050.0
 21
1201.583741
 31
0.0
  0
LINE
  5
538
330
521
100
AcDbEntity
  8
LC-010-003-----0
 62
     7
370
    25
100
AcDbLine
 10
1050.0
 20
1201.583741
 30
0.0
 11
1049.282106
 21
1196.130794
 31
0.0
  0
TEXT
  5
539
330
521
100
AcDbEntity
  8
LC-010-003-----0
 62
     7
370
    25
100
AcDbText
 10
1035.0
 20
1006.891394
 30
0.0
 40
25.0
  1
12.79
 50
90.0
 41
0.7
  7
LCTX0-400-0-0pDIN-Schrift
 72
     1
 11
1035.0
 21
1045.224728
 31
0.0
100
AcDbText
  0
ENDBLK
  5
523
330
521
100
AcDbEntity
  8
0
100
AcDbBlockEnd
  0
BLOCK
  5
53C
330
53B
100
AcDbEntity
  8
0
100
AcDbBlockBegin
  2
LCDIM9
 70
     0
 71
     0
 10
0.0
 20
0.0
 30
0.0
  3
LCDIM9
  1

  4
LCDIM9
  0
TEXT
  5
53E
330
53B
100
AcDbEntity
  8
LC-010-003-----0
 62
     7
370
    25
100
AcDbText
 10
703.650913
 20
1162.305269
 30
0.0
 40
25.0
  1
R.79
 50
307.560638
 41
0.7
  7
LCTX0-400-0-0pDIN-Schrift
100
AcDbText
  0
LINE
  5
53F
330
53B
100
AcDbEntity
  8
LC-009-003-MTG-0
 62
     7
370
    25
100
AcDbLine
 10
719.165547
 20
1117.52418
 30
0.0
 11
642.715401
 21
1216.937912
 31
0.0
  0
LINE
  5
540
330
53B
100
AcDbEntity
  8
LC-010-003-----0
 62
     7
370
    25
100
AcDbLine
 10
660.411771
 20
1199.278963
 30
0.0
 11
642.715401
 21
1216.937912
 31
0.0
  0
LINE
  5
541
330
53B
100
AcDbEntity
  8
LC-010-003-----0
 62
     7
370
    25
100
AcDbLine
 10
642.715401
 20
1216.937912
 30
0.0
 11
655.238309
 21
1195.300519
 31
0.0
  0
LINE
  5
542
330
53B
100
AcDbEntity
  8
LC-010-003-----0
 62
     7
370
    25
100
AcDbLine
 10
655.238309
 20
1195.300519
 30
0.0
 11
660.411771
 21
1199.278963
 31
0.0
  0
LINE
  5
543
330
53B
100
AcDbEntity
  8
LC-010-003-----0
 62
     7
370
    25
100
AcDbLine
 10
659.77312
 20
1198.717684
 30
0.0
 11
646.677806
 21
1211.785306
 31
0.0
  0
LINE
  5
544
330
53B
100
AcDbEntity
  8
LC-010-003-----0
 62
     7
370
    25
100
AcDbLine
 10
646.677806
 20
1211.785306
 30
0.0
 11
655.944758
 21
1195.773636
 31
0.0
  0
LINE
  5
545
330
53B
100
AcDbEntity
  8
LC-010-003-----0
 62
     7
370
    25
100
AcDbLine
 10
659.134469
 20
1198.156405
 30
0.0
 11
650.640211
 21
1206.632701
 31
0.0
  0
LINE
  5
546
330
53B
100
AcDbEntity
  8
LC-010-003-----0
 62
     7
370
    25
100
AcDbLine
 10
650.640211
 20
1206.632701
 30
0.0
 11
656.651207
 21
1196.246752
 31
0.0
  0
LINE
  5
547
330
53B
100
AcDbEntity
  8
LC-010-003-----0
 62
     7
370
    25
100
AcDbLine
 10
658.495817
 20
1197.595126
 30
0.0
 11
654.602616
 21
1201.480095
 31
0.0
  0
LINE
  5
548
330
53B
100
AcDbEntity
  8
LC-010-003-----0
 62
     7
370
    25
100
AcDbLine
 10
654.602616
 20
1201.480095
 30
0.0
 11
657.357656
 21
1196.719868
 31
0.0
  0
ENDBLK
  5
53D
330
53B
100
AcDbEntity
  8
0
100
AcDbBlockEnd
  0
BLOCK
  5
54B
330
54A
100
AcDbEntity
  8
0
100
AcDbBlockBegin
  2
LCDIM10
 70
     0
 71
     0
 10
0.0
 20
0.0
 30
0.0
  3
LCDIM10
  1

  4
LCDIM10
  0
LINE
  5
54D
330
54A
100
AcDbEntity
  8
LC-008-003-MTH-0
 62
     7
370
    25
100
AcDbLine
 10
1776.110471
 20
1616.650569
 30
0.0
 11
1865.0
 21
1616.650569
 31
0.0
  0
LINE
  5
54E
330
54A
100
AcDbEntity
  8
LC-008-003-MTH-0
 62
     7
370
    25
100
AcDbLine
 10
1776.110471
 20
1941.409431
 30
0.0
 11
1865.0
 21
1941.409431
 31
0.0
  0
LINE
  5
54F
330
54A
100
AcDbEntity
  8
LC-009-003-MTG-0
 62
     7
370
    25
100
AcDbLine
 10
1850.0
 20
1616.650569
 30
0.0
 11
1850.0
 21
1941.409431
 31
0.0
  0
LINE
  5
550
330
54A
100
AcDbEntity
  8
LC-010-003-----0
 62
     7
370
    25
100
AcDbLine
 10
1846.736845
 20
1641.436691
 30
0.0
 11
1850.0
 21
1616.650569
 31
0.0
  0
LINE
  5
551
330
54A
100
AcDbEntity
  8
LC-010-003-----0
 62
     7
370
    25
100
AcDbLine
 10
1850.0
 20
1616.650569
 30
0.0
 11
1853.263155
 21
1641.436691
 31
0.0
  0
LINE
  5
552
330
54A
100
AcDbEntity
  8
LC-010-003-----0
 62
     7
370
    25
100
AcDbLine
 10
1853.263155
 20
1641.436691
 30
0.0
 11
1846.736845
 21
1641.436691
 31
0.0
  0
LINE
  5
553
330
54A
100
AcDbEntity
  8
LC-010-003-----0
 62
     7
370
    25
100
AcDbLine
 10
1847.585265
 20
1641.492299
 30
0.0
 11
1850.0
 21
1623.150569
 31
0.0
  0
LINE
  5
554
330
54A
100
AcDbEntity
  8
LC-010-003-----0
 62
     7
370
    25
100
AcDbLine
 10
1850.0
 20
1623.150569
 30
0.0
 11
1852.414735
 21
1641.492299
 31
0.0
  0
LINE
  5
555
330
54A
100
AcDbEntity
  8
LC-010-003-----0
 62
     7
370
    25
100
AcDbLine
 10
1848.433686
 20
1641.547908
 30
0.0
 11
1850.0
 21
1629.650569
 31
0.0
  0
LINE
  5
556
330
54A
100
AcDbEntity
  8
LC-010-003-----0
 62
     7
370
    25
100
AcDbLine
 10
1850.0
 20
1629.650569
 30
0.0
 11
1851.566314
 21
1641.547908
 31
0.0
  0
LINE
  5
557
330
54A
100
AcDbEntity
  8
LC-010-003-----0
 62
     7
370
    25
100
AcDbLine
 10
1849.282106
 20
1641.603516
 30
0.0
 11
1850.0
 21
1636.150569
 31
0.0
  0
LINE
  5
558
330
54A
100
AcDbEntity
  8
LC-010-003-----0
 62
     7
370
    25
100
AcDbLine
 10
1850.0
 20
1636.150569
 30
0.0
 11
1850.717894
 21
1641.603516
 31
0.0
  0
LINE
  5
559
330
54A
100
AcDbEntity
  8
LC-010-003-----0
 62
     7
370
    25
100
AcDbLine
 10
1853.263155
 20
1916.623309
 30
0.0
 11
1850.0
 21
1941.409431
 31
0.0
  0
LINE
  5
55A
330
54A
100
AcDbEntity
  8
LC-010-003-----0
 62
     7
370
    25
100
AcDbLine
 10
1850.0
 20
1941.409431
 30
0.0
 11
1846.736845
 21
1916.623309
 31
0.0
  0
LINE
  5
55B
330
54A
100
AcDbEntity
  8
LC-010-003-----0
 62
     7
370
    25
100
AcDbLine
 10
1846.736845
 20
1916.623309
 30
0.0
 11
1853.263155
 21
1916.623309
 31
0.0
  0
LINE
  5
55C
330
54A
100
AcDbEntity
  8
LC-010-003-----0
 62
     7
370
    25
100
AcDbLine
 10
1852.414735
 20
1916.567701
 30
0.0
 11
1850.0
 21
1934.909431
 31
0.0
  0
LINE
  5
55D
330
54A
100
AcDbEntity
  8
LC-010-003-----0
 62
     7
370
    25
100
AcDbLine
 10
1850.0
 20
1934.909431
 30
0.0
 11
1847.585265
 21
1916.567701
 31
0.0
  0
LINE
  5
55E
330
54A
100
AcDbEntity
  8
LC-010-003-----0
 62
     7
370
    25
100
AcDbLine
 10
1851.566314
 20
1916.512092
 30
0.0
 11
1850.0
 21
1928.409431
 31
0.0
  0
LINE
  5
55F
330
54A
100
AcDbEntity
  8
LC-010-003-----0
 62
     7
370
    25
100
AcDbLine
 10
1850.0
 20
1928.409431
 30
0.0
 11
1848.433686
 21
1916.512092
 31
0.0
  0
LINE
  5
560
330
54A
100
AcDbEntity
  8
LC-010-003-----0
 62
     7
370
    25
100
AcDbLine
 10
1850.717894
 20
1916.456484
 30
0.0
 11
1850.0
 21
1921.909431
 31
0.0
  0
LINE
  5
561
330
54A
100
AcDbEntity
  8
LC-010-003-----0
 62
     7
370
    25
100
AcDbLine
 10
1850.0
 20
1921.909431
 30
0.0
 11
1849.282106
 21
1916.456484
 31
0.0
  0
TEXT
  5
562
330
54A
100
AcDbEntity
  8
LC-010-003-----0
 62
     7
370
    25
100
AcDbText
 10
1835.0
 20
1735.014389
 30
0.0
 40
25.0
  1
12.79
 50
90.0
 41
0.7
  7
LCTX0-400-0-0pDIN-Schrift
 72
     1
 11
1835.0
 21
1773.347722
 31
0.0
100
AcDbText
  0
ENDBLK
  5
54C
330
54A
100
AcDbEntity
  8
0
100
AcDbBlockEnd
  0
BLOCK
  5
573
330
572
100
AcDbEntity
  8
0
100
AcDbBlockBegin
  2
*X229
 70
     1
 71
     0
 10
0.0
 20
0.0
 30
0.0
  3
*X229
  1

  4
*X2
  0
LINE
  5
575
330
572
100
AcDbEntity
  8
LC-006-005-----0
 62
     7
370
    25
100
AcDbLine
 10
1883.112229
 20
2505.366197
 30
0.0
 11
1884.449832
 21
2506.703799
 31
0.0
  0
LINE
  5
576
330
572
100
AcDbEntity
  8
LC-006-005-----0
 62
     7
370
    25
100
AcDbLine
 10
1854.827958
 20
2505.366197
 30
0.0
 11
1909.631552
 21
2560.16979
 31
0.0
  0
LINE
  5
577
330
572
100
AcDbEntity
  8
LC-006-005-----0
 62
     7
370
    25
100
AcDbLine
 10
1826.543687
 20
2505.366197
 30
0.0
 11
1912.915266
 21
2591.737776
 31
0.0
  0
LINE
  5
578
330
572
100
AcDbEntity
  8
LC-006-005-----0
 62
     7
370
    25
100
AcDbLine
 10
1798.259415
 20
2505.366197
 30
0.0
 11
1907.89083
 21
2614.997612
 31
0.0
  0
LINE
  5
579
330
572
100
AcDbEntity
  8
LC-006-005-----0
 62
     7
370
    25
100
AcDbLine
 10
1769.975144
 20
2505.366197
 30
0.0
 11
1902.866395
 21
2638.257447
 31
0.0
  0
LINE
  5
57A
330
572
100
AcDbEntity
  8
LC-006-005-----0
 62
     7
370
    25
100
AcDbLine
 10
1741.690873
 20
2505.366197
 30
0.0
 11
1881.690873
 21
2645.366197
 31
0.0
  0
LINE
  5
57B
330
572
100
AcDbEntity
  8
LC-006-005-----0
 62
     7
370
    25
100
AcDbLine
 10
1713.406602
 20
2505.366197
 30
0.0
 11
1853.406602
 21
2645.366197
 31
0.0
  0
LINE
  5
57C
330
572
100
AcDbEntity
  8
LC-006-005-----0
 62
     7
370
    25
100
AcDbLine
 10
1685.122331
 20
2505.366197
 30
0.0
 11
1825.122331
 21
2645.366197
 31
0.0
  0
LINE
  5
57D
330
572
100
AcDbEntity
  8
LC-006-005-----0
 62
     7
370
    25
100
AcDbLine
 10
1656.838059
 20
2505.366197
 30
0.0
 11
1796.838059
 21
2645.366197
 31
0.0
  0
LINE
  5
57E
330
572
100
AcDbEntity
  8
LC-006-005-----0
 62
     7
370
    25
100
AcDbLine
 10
1628.553788
 20
2505.366197
 30
0.0
 11
1768.553788
 21
2645.366197
 31
0.0
  0
LINE
  5
57F
330
572
100
AcDbEntity
  8
LC-006-005-----0
 62
     7
370
    25
100
AcDbLine
 10
1600.269517
 20
2505.366197
 30
0.0
 11
1740.269517
 21
2645.366197
 31
0.0
  0
LINE
  5
580
330
572
100
AcDbEntity
  8
LC-006-005-----0
 62
     7
370
    25
100
AcDbLine
 10
1571.985246
 20
2505.366197
 30
0.0
 11
1711.985246
 21
2645.366197
 31
0.0
  0
LINE
  5
581
330
572
100
AcDbEntity
  8
LC-006-005-----0
 62
     7
370
    25
100
AcDbLine
 10
1543.700974
 20
2505.366197
 30
0.0
 11
1683.700974
 21
2645.366197
 31
0.0
  0
LINE
  5
582
330
572
100
AcDbEntity
  8
LC-006-005-----0
 62
     7
370
    25
100
AcDbLine
 10
1529.739264
 20
2519.688757
 30
0.0
 11
1655.416703
 21
2645.366197
 31
0.0
  0
LINE
  5
583
330
572
100
AcDbEntity
  8
LC-006-005-----0
 62
     7
370
    25
100
AcDbLine
 10
1533.698236
 20
2551.932001
 30
0.0
 11
1627.132432
 21
2645.366197
 31
0.0
  0
LINE
  5
584
330
572
100
AcDbEntity
  8
LC-006-005-----0
 62
     7
370
    25
100
AcDbLine
 10
1537.657209
 20
2584.175245
 30
0.0
 11
1598.848161
 21
2645.366197
 31
0.0
  0
LINE
  5
585
330
572
100
AcDbEntity
  8
LC-006-005-----0
 62
     7
370
    25
100
AcDbLine
 10
1541.616181
 20
2616.418489
 30
0.0
 11
1570.563889
 21
2645.366197
 31
0.0
  0
ENDBLK
  5
574
330
572
100
AcDbEntity
  8
0
100
AcDbBlockEnd
  0
BLOCK
  5
588
330
587
100
AcDbEntity
  8
0
100
AcDbBlockBegin
  2
*X330
 70
     1
 71
     0
 10
0.0
 20
0.0
 30
0.0
  3
*X330
  1

  4
*X3
  0
LINE
  5
58A
330
587
100
AcDbEntity
  8
LC-006-005-----0
 62
     7
370
    25
100
AcDbLine
 10
1501.379044
 20
2288.713303
 30
0.0
 11
1526.444812
 21
2263.647535
 31
0.0
  0
LINE
  5
58B
330
587
100
AcDbEntity
  8
LC-006-005-----0
 62
     7
370
    25
100
AcDbLine
 10
1504.472132
 20
2313.904486
 30
0.0
 11
1544.852045
 21
2273.524574
 31
0.0
  0
LINE
  5
58C
330
587
100
AcDbEntity
  8
LC-006-005-----0
 62
     7
370
    25
100
AcDbLine
 10
1507.565221
 20
2339.095669
 30
0.0
 11
1547.945133
 21
2298.715757
 31
0.0
  0
LINE
  5
58D
330
587
100
AcDbEntity
  8
LC-006-005-----0
 62
     7
370
    25
100
AcDbLine
 10
1510.658309
 20
2364.286852
 30
0.0
 11
1551.038221
 21
2323.90694
 31
0.0
  0
LINE
  5
58E
330
587
100
AcDbEntity
  8
LC-006-005-----0
 62
     7
370
    25
100
AcDbLine
 10
1513.751397
 20
2389.478035
 30
0.0
 11
1554.13131
 21
2349.098122
 31
0.0
  0
LINE
  5
58F
330
587
100
AcDbEntity
  8
LC-006-005-----0
 62
     7
370
    25
100
AcDbLine
 10
1516.844486
 20
2414.669218
 30
0.0
 11
1557.224398
 21
2374.289305
 31
0.0
  0
LINE
  5
590
330
587
100
AcDbEntity
  8
LC-006-005-----0
 62
     7
370
    25
100
AcDbLine
 10
1519.937574
 20
2439.860401
 30
0.0
 11
1560.317486
 21
2399.480488
 31
0.0
  0
LINE
  5
591
330
587
100
AcDbEntity
  8
LC-006-005-----0
 62
     7
370
    25
100
AcDbLine
 10
1523.030662
 20
2465.051584
 30
0.0
 11
1563.416871
 21
2424.665375
 31
0.0
  0
LINE
  5
592
330
587
100
AcDbEntity
  8
LC-006-005-----0
 62
     7
370
    25
100
AcDbLine
 10
1526.123751
 20
2490.242766
 30
0.0
 11
1573.389947
 21
2442.97657
 31
0.0
  0
LINE
  5
593
330
587
100
AcDbEntity
  8
LC-006-005-----0
 62
     7
370
    25
100
AcDbLine
 10
1539.284592
 20
2505.366197
 30
0.0
 11
1594.284592
 21
2450.366197
 31
0.0
  0
LINE
  5
594
330
587
100
AcDbEntity
  8
LC-006-005-----0
 62
     7
370
    25
100
AcDbLine
 10
1567.568863
 20
2505.366197
 30
0.0
 11
1607.568863
 21
2465.366197
 31
0.0
  0
LINE
  5
595
330
587
100
AcDbEntity
  8
LC-006-005-----0
 62
     7
370
    25
100
AcDbLine
 10
1595.853134
 20
2505.366197
 30
0.0
 11
1635.853134
 21
2465.366197
 31
0.0
  0
LINE
  5
596
330
587
100
AcDbEntity
  8
LC-006-005-----0
 62
     7
370
    25
100
AcDbLine
 10
1624.137405
 20
2505.366197
 30
0.0
 11
1659.589788
 21
2469.913814
 31
0.0
  0
LINE
  5
597
330
587
100
AcDbEntity
  8
LC-006-005-----0
 62
     7
370
    25
100
AcDbLine
 10
1652.421677
 20
2505.366197
 30
0.0
 11
1657.463257
 21
2500.324616
 31
0.0
  0
ENDBLK
  5
589
330
587
100
AcDbEntity
  8
0
100
AcDbBlockEnd
  0
ENDSEC
  0
SECTION
  2
ENTITIES
  0
INSERT
  5
103
330
1F
100
AcDbEntity
  8
LC-003-230-ZVN-0
 62
     7
370
    50
100
AcDbBlockReference
  2
SYM1
 10
0.0
 20
0.0
 30
0.0
  0
ARC
  5
105
102
{ACAD_REACTORS
330
5A6
102
}
330
1F
100
AcDbEntity
  8
LC-004-002-RND-0
 62
     7
370
    50
100
AcDbCircle
 10
940.051702
 20
1636.265146
 30
0.0
 40
46.0
100
AcDbArc
 50
270.0
 51
0.0
  0
ARC
  5
106
102
{ACAD_REACTORS
330
5A6
102
}
330
1F
100
AcDbEntity
  8
LC-004-002-RND-0
 62
     7
370
    50
100
AcDbCircle
 10
940.051702
 20
1921.794854
 30
0.0
 40
46.0
100
AcDbArc
 50
0.0
 51
90.0
  0
ARC
  5
107
102
{ACAD_REACTORS
330
5A6
102
}
330
1F
100
AcDbEntity
  8
LC-004-002-RND-0
 62
     7
370
    50
100
AcDbCircle
 10
654.521995
 20
1636.265146
 30
0.0
 40
46.0
100
AcDbArc
 50
180.0
 51
270.0
  0
CIRCLE
  5
108
102
{ACAD_REACTORS
330
5A6
102
}
330
1F
100
AcDbEntity
  8
LC-002-002-----0
 62
     7
370
    50
100
AcDbCircle
 10
735.286848
 20
1841.03
 30
0.0
 40
45.0
  0
CIRCLE
  5
109
102
{ACAD_REACTORS
330
5A6
102
}
330
1F
100
AcDbEntity
  8
LC-002-002-----0
 62
     7
370
    50
100
AcDbCircle
 10
735.286848
 20
1841.03
 30
0.0
 40
57.5
  0
LINE
  5
10A
330
1F
100
AcDbEntity
  8
LC-002-002-----0
 62
     7
370
    25
100
AcDbLine
 10
1499.252244
 20
2271.391905
 30
0.0
 11
1525.280142
 21
2263.550921
 31
0.0
  0
ARC
  5
10B
102
{ACAD_REACTORS
330
5A6
102
}
330
1F
100
AcDbEntity
  8
LC-004-002-RND-0
 62
     7
370
    25
100
AcDbCircle
 10
693.970818
 20
1675.147702
 30
0.0
 40
19.0
100
AcDbArc
 50
180.0
 51
270.000002
  0
ARC
  5
10C
102
{ACAD_REACTORS
330
5A6
102
}
330
1F
100
AcDbEntity
  8
LC-004-002-RND-0
 62
     7
370
    25
100
AcDbCircle
 10
901.13685
 20
1675.147708
 30
0.0
 40
19.00000000000001
100
AcDbArc
 50
270.000002
 51
360.0
  0
LINE
  5
10D
330
1F
100
AcDbEntity
  8
LC-002-002-----0
 62
     7
370
    25
100
AcDbLine
 10
1525.280142
 20
2263.550921
 30
0.0
 11
1543.816233
 21
2265.088562
 31
0.0
  0
ARC
  5
10E
102
{ACAD_REACTORS
330
5A6
102
}
330
1F
100
AcDbEntity
  8
LC-004-002-RND-0
 62
     7
370
    25
100
AcDbCircle
 10
901.136862
 20
1882.912292
 30
0.0
 40
19.0
100
AcDbArc
 50
360.0
 51
89.999998
  0
ARC
  5
10F
102
{ACAD_REACTORS
330
5A6
102
}
330
1F
100
AcDbEntity
  8
LC-004-002-RND-0
 62
     7
370
    25
100
AcDbCircle
 10
693.970799
 20
1882.912298
 30
0.0
 40
19.00000000000001
100
AcDbArc
 50
89.999998
 51
180.0
  0
ARC
  5
110
102
{ACAD_REACTORS
330
5A6
102
}
330
1F
100
AcDbEntity
  8
LC-002-002-----0
 62
     7
370
    50
100
AcDbCircle
 10
654.907417
 20
1921.409431
 30
0.0
 40
20.0
100
AcDbArc
 50
90.0
 51
180.0
  0
ARC
  5
111
102
{ACAD_REACTORS
330
5A6
102
}
330
1F
100
AcDbEntity
  8
LC-004-002-RND-0
 62
     7
370
    50
100
AcDbCircle
 10
654.521995
 20
1921.794854
 30
0.0
 40
46.0
100
AcDbArc
 50
90.0
 51
180.0
  0
ARC
  5
112
102
{ACAD_REACTORS
330
5A6
102
}
330
1F
100
AcDbEntity
  8
LC-002-002-----0
 62
     7
370
    50
100
AcDbCircle
 10
939.666279
 20
1921.409431
 30
0.0
 40
20.0
100
AcDbArc
 50
0.0
 51
90.0
  0
LINE
  5
113
102
{ACAD_REACTORS
330
5A6
102
}
330
1F
100
AcDbEntity
  8
LC-002-002-----0
 62
     7
370
    50
100
AcDbLine
 10
608.521995
 20
1921.794854
 30
0.0
 11
608.521995
 21
1636.265146
 31
0.0
  0
LINE
  5
114
102
{ACAD_REACTORS
330
5A6
102
}
330
1F
100
AcDbEntity
  8
LC-002-002-----0
 62
     7
370
    50
100
AcDbLine
 10
634.907417
 20
1921.409431
 30
0.0
 11
634.907417
 21
1636.650569
 31
0.0
  0
LINE
  5
115
102
{ACAD_REACTORS
330
5A6
102
}
330
1F
100
AcDbEntity
  8
LC-002-002-----0
 62
     7
370
    50
100
AcDbLine
 10
959.666279
 20
1921.409431
 30
0.0
 11
959.666279
 21
1636.650569
 31
0.0
  0
LINE
  5
116
102
{ACAD_REACTORS
330
5A6
102
}
330
1F
100
AcDbEntity
  8
LC-002-002-----0
 62
     7
370
    50
100
AcDbLine
 10
986.051702
 20
1921.794854
 30
0.0
 11
986.051702
 21
1636.265146
 31
0.0
  0
ARC
  5
117
102
{ACAD_REACTORS
330
5A6
102
}
330
1F
100
AcDbEntity
  8
LC-002-002-----0
 62
     7
370
    50
100
AcDbCircle
 10
939.666279
 20
1636.650569
 30
0.0
 40
20.0
100
AcDbArc
 50
270.0
 51
0.0
  0
ARC
  5
118
102
{ACAD_REACTORS
330
5A6
102
}
330
1F
100
AcDbEntity
  8
LC-002-002-----0
 62
     7
370
    50
100
AcDbCircle
 10
654.907417
 20
1636.650569
 30
0.0
 40
20.0
100
AcDbArc
 50
180.0
 51
270.0
  0
LINE
  5
119
102
{ACAD_REACTORS
330
5A6
102
}
330
1F
100
AcDbEntity
  8
LC-002-002-----0
 62
     7
370
    50
100
AcDbLine
 10
654.521995
 20
1967.794854
 30
0.0
 11
940.051702
 21
1967.794854
 31
0.0
  0
LINE
  5
11A
102
{ACAD_REACTORS
330
5A6
102
}
330
1F
100
AcDbEntity
  8
LC-002-002-----0
 62
     7
370
    50
100
AcDbLine
 10
654.907417
 20
1941.409431
 30
0.0
 11
939.666279
 21
1941.409431
 31
0.0
  0
LINE
  5
11B
102
{ACAD_REACTORS
330
5A6
102
}
330
1F
100
AcDbEntity
  8
LC-002-002-----0
 62
     7
370
    50
100
AcDbLine
 10
654.907417
 20
1616.650569
 30
0.0
 11
939.666279
 21
1616.650569
 31
0.0
  0
LINE
  5
11C
102
{ACAD_REACTORS
330
5A6
102
}
330
1F
100
AcDbEntity
  8
LC-002-002-----0
 62
     7
370
    50
100
AcDbLine
 10
654.521995
 20
1590.265146
 30
0.0
 11
940.051702
 21
1590.265146
 31
0.0
  0
LINE
  5
11D
102
{ACAD_REACTORS
330
5A6
102
}
330
1F
100
AcDbEntity
  8
LC-002-002-----0
 62
     7
370
    25
100
AcDbLine
 10
920.13685
 20
1675.147708
 30
0.0
 11
920.13685
 21
1841.03
 31
0.0
  0
LINE
  5
11E
102
{ACAD_REACTORS
330
5A6
102
}
330
1F
100
AcDbEntity
  8
LC-002-002-----0
 62
     7
370
    25
100
AcDbLine
 10
674.970818
 20
1675.147702
 30
0.0
 11
674.970818
 21
1841.03
 31
0.0
  0
LINE
  5
11F
102
{ACAD_REACTORS
330
5A6
102
}
330
1F
100
AcDbEntity
  8
LC-002-002-----0
 62
     7
370
    25
100
AcDbLine
 10
674.970799
 20
1841.03
 30
0.0
 11
674.970799
 21
1882.912298
 31
0.0
  0
LINE
  5
120
102
{ACAD_REACTORS
330
5A6
102
}
330
1F
100
AcDbEntity
  8
LC-002-002-----0
 62
     7
370
    25
100
AcDbLine
 10
920.136862
 20
1841.03
 30
0.0
 11
920.136862
 21
1882.912292
 31
0.0
  0
LINE
  5
121
102
{ACAD_REACTORS
330
5A6
102
}
330
1F
100
AcDbEntity
  8
LC-002-002-----0
 62
     7
370
    25
100
AcDbLine
 10
693.970819
 20
1656.147702
 30
0.0
 11
901.136851
 21
1656.147708
 31
0.0
  0
LINE
  5
122
102
{ACAD_REACTORS
330
5A6
102
}
330
1F
100
AcDbEntity
  8
LC-002-002-----0
 62
     7
370
    25
100
AcDbLine
 10
693.9708
 20
1901.912298
 30
0.0
 11
901.136863
 21
1901.912292
 31
0.0
  0
ELLIPSE
  5
123
102
{ACAD_REACTORS
330
5A6
102
}
330
1F
100
AcDbEntity
  8
LC-002-002-----0
 62
     7
370
    25
100
AcDbEllipse
 10
797.286848
 20
1938.243618
 30
0.0
 11
15.50000002365112
 21
0.0
 31
0.0
210
0.0
220
0.0
230
1.0
 40
0.096774
 41
0.0
 42
6.283185307179586
  0
LINE
  5
124
102
{ACAD_REACTORS
330
5AF
102
}
330
1F
100
AcDbEntity
  8
LC-002-002-----0
 62
     7
370
    50
100
AcDbLine
 10
1776.110471
 20
1590.933533
 30
0.0
 11
1776.110471
 21
1616.650569
 31
0.0
  0
ARC
  5
125
102
{ACAD_REACTORS
330
5AF
102
}
330
1F
100
AcDbEntity
  8
LC-002-002-----0
 62
     7
370
    50
100
AcDbCircle
 10
1591.469265
 20
1772.208731
 30
0.0
 40
5.999999999999986
100
AcDbArc
 50
2.0
 51
17.736886
  0
ARC
  5
126
102
{ACAD_REACTORS
330
5AF
102
}
330
1F
100
AcDbEntity
  8
LC-002-002-----0
 62
     7
370
    50
100
AcDbCircle
 10
1591.469265
 20
1772.208731
 30
0.0
 40
5.999999999999887
100
AcDbArc
 50
17.736886
 51
27.200469
  0
ARC
  5
127
102
{ACAD_REACTORS
330
5AF
102
}
330
1F
100
AcDbEntity
  8
LC-002-002-----0
 62
     7
370
    50
100
AcDbCircle
 10
1591.469265
 20
1772.208731
 30
0.0
 40
5.999999999999866
100
AcDbArc
 50
27.200469
 51
33.491296
  0
ARC
  5
128
102
{ACAD_REACTORS
330
5AF
102
}
330
1F
100
AcDbEntity
  8
LC-002-002-----0
 62
     7
370
    50
100
AcDbCircle
 10
1591.469265
 20
1772.208731
 30
0.0
 40
5.999999999999999
100
AcDbArc
 50
33.491296
 51
44.02508
  0
ARC
  5
129
102
{ACAD_REACTORS
330
5AF
102
}
330
1F
100
AcDbEntity
  8
LC-002-002-----0
 62
     7
370
    50
100
AcDbCircle
 10
1591.469265
 20
1772.208731
 30
0.0
 40
6.000000000000029
100
AcDbArc
 50
44.02508
 51
49.245705
  0
ARC
  5
12A
102
{ACAD_REACTORS
330
5AF
102
}
330
1F
100
AcDbEntity
  8
LC-002-002-----0
 62
     7
370
    50
100
AcDbCircle
 10
1591.469265
 20
1772.208731
 30
0.0
 40
6.00000000000012
100
AcDbArc
 50
49.245705
 51
65.0
  0
ARC
  5
12B
102
{ACAD_REACTORS
330
5AF
102
}
330
1F
100
AcDbEntity
  8
LC-002-002-----0
 62
     7
370
    50
100
AcDbCircle
 10
1594.110471
 20
1779.804141
 30
0.0
 40
2.0
100
AcDbArc
 50
180.0
 51
201.66663
  0
ARC
  5
12C
102
{ACAD_REACTORS
330
5AF
102
}
330
1F
100
AcDbEntity
  8
LC-002-002-----0
 62
     7
370
    50
100
AcDbCircle
 10
1594.110471
 20
1779.804141
 30
0.0
 40
1.999999999999845
100
AcDbArc
 50
201.66663
 51
219.362579
  0
ARC
  5
12D
102
{ACAD_REACTORS
330
5AF
102
}
330
1F
100
AcDbEntity
  8
LC-002-002-----0
 62
     7
370
    50
100
AcDbCircle
 10
1594.110471
 20
1779.804141
 30
0.0
 40
2.000000000000082
100
AcDbArc
 50
219.362579
 51
223.333325
  0
ARC
  5
12E
102
{ACAD_REACTORS
330
5AF
102
}
330
1F
100
AcDbEntity
  8
LC-002-002-----0
 62
     7
370
    50
100
AcDbCircle
 10
1594.110471
 20
1779.804141
 30
0.0
 40
1.999999999999941
100
AcDbArc
 50
223.333325
 51
245.0
  0
ARC
  5
12F
102
{ACAD_REACTORS
330
5AF
102
}
330
1F
100
AcDbEntity
  8
LC-002-002-----0
 62
     7
370
    50
100
AcDbCircle
 10
1594.110471
 20
1902.255859
 30
0.0
 40
1.999999999999831
100
AcDbArc
 50
158.33337
 51
180.0
  0
ARC
  5
130
102
{ACAD_REACTORS
330
5AF
102
}
330
1F
100
AcDbEntity
  8
LC-002-002-----0
 62
     7
370
    50
100
AcDbCircle
 10
1594.110471
 20
1902.255859
 30
0.0
 40
2.000000000000123
100
AcDbArc
 50
140.63763
 51
158.33337
  0
ARC
  5
131
102
{ACAD_REACTORS
330
5AF
102
}
330
1F
100
AcDbEntity
  8
LC-002-002-----0
 62
     7
370
    50
100
AcDbCircle
 10
1594.110471
 20
1902.255859
 30
0.0
 40
2.000000000000042
100
AcDbArc
 50
136.666675
 51
140.63763
  0
ARC
  5
132
102
{ACAD_REACTORS
330
5AF
102
}
330
1F
100
AcDbEntity
  8
LC-002-002-----0
 62
     7
370
    50
100
AcDbCircle
 10
1594.110471
 20
1902.255859
 30
0.0
 40
2.000000000000123
100
AcDbArc
 50
115.0
 51
136.666675
  0
LINE
  5
133
102
{ACAD_REACTORS
330
5AF
102
}
330
1F
100
AcDbEntity
  8
LC-002-002-----0
 62
     7
370
    50
100
AcDbLine
 10
1759.841687
 20
1948.479464
 30
0.0
 11
1640.948426
 21
1933.881207
 31
0.0
  0
LINE
  5
134
102
{ACAD_REACTORS
330
5AF
102
}
330
1F
100
AcDbEntity
  8
LC-002-002-----0
 62
     7
370
    50
100
AcDbLine
 10
1645.278169
 20
1623.647167
 30
0.0
 11
1759.841687
 21
1609.580536
 31
0.0
  0
LINE
  5
135
102
{ACAD_REACTORS
330
5AF
102
}
330
1F
100
AcDbEntity
  8
LC-002-002-----0
 62
     7
370
    50
100
AcDbLine
 10
1599.487847
 20
1913.798111
 30
0.0
 11
1597.988758
 21
1908.953733
 31
0.0
  0
LINE
  5
136
102
{ACAD_REACTORS
330
5AF
102
}
330
1F
100
AcDbEntity
  8
LC-002-002-----0
 62
     7
370
    50
100
AcDbLine
 10
1768.110471
 20
1590.265146
 30
0.0
 11
1768.110471
 21
1602.265146
 31
0.0
  0
LINE
  5
137
102
{ACAD_REACTORS
330
5AF
102
}
330
1F
100
AcDbEntity
  8
LC-002-002-----0
 62
     7
370
    50
100
AcDbLine
 10
1765.110471
 20
1955.794854
 30
0.0
 11
1765.110471
 21
1954.434741
 31
0.0
  0
LINE
  5
138
102
{ACAD_REACTORS
330
5AF
102
}
330
1F
100
AcDbEntity
  8
LC-002-002-----0
 62
     7
370
    50
100
AcDbLine
 10
1765.110471
 20
1603.625259
 30
0.0
 11
1765.110471
 21
1602.265146
 31
0.0
  0
LINE
  5
139
102
{ACAD_REACTORS
330
5AF
102
}
330
1F
100
AcDbEntity
  8
LC-002-002-----0
 62
     7
370
    50
100
AcDbLine
 10
1592.110471
 20
1902.255859
 30
0.0
 11
1592.110471
 21
1779.804141
 31
0.0
  0
LINE
  5
13A
102
{ACAD_REACTORS
330
5AF
102
}
330
1F
100
AcDbEntity
  8
LC-002-002-----0
 62
     7
370
    50
100
AcDbLine
 10
1776.110471
 20
1941.409431
 30
0.0
 11
1776.110471
 21
1841.03
 31
0.0
  0
LINE
  5
13B
102
{ACAD_REACTORS
330
5AF
102
}
330
1F
100
AcDbEntity
  8
LC-002-002-----0
 62
     7
370
    50
100
AcDbLine
 10
1776.110471
 20
1841.03
 30
0.0
 11
1776.110471
 21
1616.650569
 31
0.0
  0
LINE
  5
13E
102
{ACAD_REACTORS
330
5AF
102
}
330
1F
100
AcDbEntity
  8
LC-005-006-MLN-0
 62
     7
370
    25
100
AcDbLine
 10
1736.648039
 20
1948.654171
 30
0.0
 11
1738.476079
 21
1933.765979
 31
0.0
  0
LINE
  5
13F
102
{ACAD_REACTORS
330
5AF
102
}
330
1F
100
AcDbEntity
  8
LC-002-002-----0
 62
     7
370
    50
100
AcDbLine
 10
1721.629181
 20
1943.787558
 30
0.0
 11
1722.726005
 21
1934.854643
 31
0.0
  0
LINE
  5
140
102
{ACAD_REACTORS
330
5AF
102
}
330
1F
100
AcDbEntity
  8
LC-002-002-----0
 62
     7
370
    50
100
AcDbLine
 10
1752.398112
 20
1947.565508
 30
0.0
 11
1753.494936
 21
1938.632592
 31
0.0
  0
LINE
  5
141
102
{ACAD_REACTORS
330
5B0
102
}
330
1F
100
AcDbEntity
  8
LC-002-002-----0
 62
     7
370
    50
100
AcDbLine
 10
631.46945
 20
2465.296484
 30
0.0
 11
634.907417
 21
2437.296484
 31
0.0
  0
LINE
  5
142
102
{ACAD_REACTORS
330
5B0
102
}
330
1F
100
AcDbEntity
  8
LC-002-002-----0
 62
     7
370
    50
100
AcDbLine
 10
634.907417
 20
2437.296484
 30
0.0
 11
563.739584
 21
2437.296484
 31
0.0
  0
LINE
  5
143
102
{ACAD_REACTORS
330
5B0
102
}
330
1F
100
AcDbEntity
  8
LC-002-002-----0
 62
     7
370
    25
100
AcDbLine
 10
560.23739
 20
2465.296484
 30
0.0
 11
557.192004
 21
2451.198349
 31
0.0
  0
LINE
  5
144
102
{ACAD_REACTORS
330
5AF
102
}
330
1F
100
AcDbEntity
  8
LC-002-002-----0
 62
     7
370
    50
100
AcDbLine
 10
1593.265234
 20
1777.991525
 30
0.0
 11
1594.004975
 21
1777.646578
 31
0.0
  0
LINE
  5
145
102
{ACAD_REACTORS
330
5AF
102
}
330
1F
100
AcDbEntity
  8
LC-002-002-----0
 62
     7
370
    50
100
AcDbLine
 10
1776.110471
 20
1941.409431
 30
0.0
 11
1642.026892
 21
1924.946038
 31
0.0
  0
LINE
  5
146
102
{ACAD_REACTORS
330
5AF
102
}
330
1F
100
AcDbEntity
  8
LC-002-002-----0
 62
     7
370
    50
100
AcDbLine
 10
1646.375686
 20
1632.579998
 30
0.0
 11
1776.110471
 21
1616.650569
 31
0.0
  0
LINE
  5
147
102
{ACAD_REACTORS
330
5B0
102
}
330
1F
100
AcDbEntity
  8
LC-002-002-----0
 62
     7
370
    50
100
AcDbLine
 10
560.23739
 20
2465.296484
 30
0.0
 11
631.46945
 21
2465.296484
 31
0.0
  0
LINE
  5
148
102
{ACAD_REACTORS
330
5AF
102
}
330
1F
100
AcDbEntity
  8
LC-005-006-MLN-0
 62
     7
370
    25
100
AcDbLine
 10
1589.110471
 20
1841.03
 30
0.0
 11
1611.110471
 21
1841.03
 31
0.0
  0
LINE
  5
149
102
{ACAD_REACTORS
330
5AF
102
}
330
1F
100
AcDbEntity
  8
LC-002-002-----0
 62
     7
370
    50
100
AcDbLine
 10
1775.31974
 20
1590.769268
 30
0.0
 11
1768.110471
 21
1590.265146
 31
0.0
  0
LINE
  5
14A
102
{ACAD_REACTORS
330
5AF
102
}
330
1F
100
AcDbEntity
  8
LC-002-002-----0
 62
     7
370
    50
100
AcDbLine
 10
1768.110471
 20
1955.794854
 30
0.0
 11
1768.110471
 21
1967.794854
 31
0.0
  0
LINE
  5
14B
102
{ACAD_REACTORS
330
5AF
102
}
330
1F
100
AcDbEntity
  8
LC-002-002-----0
 62
     7
370
    25
100
AcDbLine
 10
1608.110471
 20
1782.78
 30
0.0
 11
1608.110471
 21
1899.28
 31
0.0
  0
LINE
  5
14C
102
{ACAD_REACTORS
330
5AF
102
}
330
1F
100
AcDbEntity
  8
LC-002-002-----0
 62
     7
370
    50
100
AcDbLine
 10
1768.110471
 20
1967.794854
 30
0.0
 11
1775.31974
 21
1967.290732
 31
0.0
  0
LINE
  5
14D
102
{ACAD_REACTORS
330
5AF
102
}
330
1F
100
AcDbEntity
  8
LC-002-002-----0
 62
     7
370
    50
100
AcDbLine
 10
1765.110471
 20
1602.265146
 30
0.0
 11
1768.110471
 21
1602.265146
 31
0.0
  0
LINE
  5
14E
102
{ACAD_REACTORS
330
5AF
102
}
330
1F
100
AcDbEntity
  8
LC-002-002-----0
 62
     7
370
    25
100
AcDbLine
 10
1603.981319
 20
1795.03
 30
0.0
 11
1603.981319
 21
1887.03
 31
0.0
  0
LINE
  5
14F
102
{ACAD_REACTORS
330
5B0
102
}
330
1F
100
AcDbEntity
  8
LC-002-002-----0
 62
     7
370
    25
100
AcDbLine
 10
557.192004
 20
2451.198349
 30
0.0
 11
563.739584
 21
2437.296484
 31
0.0
  0
LINE
  5
150
102
{ACAD_REACTORS
330
5AF
102
}
330
1F
100
AcDbEntity
  8
LC-002-002-----0
 62
     7
370
    50
100
AcDbLine
 10
1765.110471
 20
1955.794854
 30
0.0
 11
1768.110471
 21
1955.794854
 31
0.0
  0
ARC
  5
151
102
{ACAD_REACTORS
330
5AF
102
}
330
1F
100
AcDbEntity
  8
LC-002-002-----0
 62
     7
370
    50
100
AcDbCircle
 10
1775.110471
 20
1964.29804
 30
0.0
 40
3.000000000101847
100
AcDbArc
 50
70.528779
 51
86.0
  0
ARC
  5
152
102
{ACAD_REACTORS
330
5AF
102
}
330
1F
100
AcDbEntity
  8
LC-002-002-----0
 62
     7
370
    50
100
AcDbCircle
 10
1759.110471
 20
1954.434741
 30
0.0
 40
6.000000000000267
100
AcDbArc
 50
277.0
 51
0.0
  0
LINE
  5
153
102
{ACAD_REACTORS
330
5AF
102
}
330
1F
100
AcDbEntity
  8
LC-002-002-----0
 62
     7
370
    50
100
AcDbLine
 10
1594.644648
 20
1904.711706
 30
0.0
 11
1593.265234
 21
1904.068475
 31
0.0
  0
ARC
  5
154
102
{ACAD_REACTORS
330
5AF
102
}
330
1F
100
AcDbEntity
  8
LC-002-002-----0
 62
     7
370
    50
100
AcDbCircle
 10
1594.110471
 20
1902.255859
 30
0.0
 40
2.000000000000123
100
AcDbArc
 50
115.0
 51
136.666675
  0
ARC
  5
155
102
{ACAD_REACTORS
330
5AF
102
}
330
1F
100
AcDbEntity
  8
LC-002-002-----0
 62
     7
370
    50
100
AcDbCircle
 10
1594.110471
 20
1902.255859
 30
0.0
 40
2.00000000000017
100
AcDbArc
 50
136.666675
 51
140.588387
  0
ARC
  5
156
102
{ACAD_REACTORS
330
5AF
102
}
330
1F
100
AcDbEntity
  8
LC-002-002-----0
 62
     7
370
    50
100
AcDbCircle
 10
1594.110471
 20
1902.255859
 30
0.0
 40
2.0000000000002
100
AcDbArc
 50
140.588387
 51
158.333369
  0
ARC
  5
157
102
{ACAD_REACTORS
330
5AF
102
}
330
1F
100
AcDbEntity
  8
LC-002-002-----0
 62
     7
370
    50
100
AcDbCircle
 10
1594.110471
 20
1902.255859
 30
0.0
 40
1.999999999999848
100
AcDbArc
 50
158.333369
 51
180.0
  0
ARC
  5
158
102
{ACAD_REACTORS
330
5AF
102
}
330
1F
100
AcDbEntity
  8
LC-002-002-----0
 62
     7
370
    50
100
AcDbCircle
 10
1594.110471
 20
1779.804141
 30
0.0
 40
2.000000000000006
100
AcDbArc
 50
223.333325
 51
245.0
  0
ARC
  5
159
102
{ACAD_REACTORS
330
5AF
102
}
330
1F
100
AcDbEntity
  8
LC-002-002-----0
 62
     7
370
    50
100
AcDbCircle
 10
1594.110471
 20
1779.804141
 30
0.0
 40
1.999999999999971
100
AcDbArc
 50
219.411821
 51
223.333325
  0
ARC
  5
15A
102
{ACAD_REACTORS
330
5AF
102
}
330
1F
100
AcDbEntity
  8
LC-002-002-----0
 62
     7
370
    50
100
AcDbCircle
 10
1594.110471
 20
1779.804141
 30
0.0
 40
2.000000000000276
100
AcDbArc
 50
201.666631
 51
219.411821
  0
ARC
  5
15B
102
{ACAD_REACTORS
330
5AF
102
}
330
1F
100
AcDbEntity
  8
LC-002-002-----0
 62
     7
370
    50
100
AcDbCircle
 10
1594.110471
 20
1779.804141
 30
0.0
 40
2.0
100
AcDbArc
 50
180.0
 51
201.666631
  0
LINE
  5
15C
102
{ACAD_REACTORS
330
5AF
102
}
330
1F
100
AcDbEntity
  8
LC-002-002-----0
 62
     7
370
    50
100
AcDbLine
 10
1594.004975
 20
1777.646578
 30
0.0
 11
1593.265234
 21
1777.991525
 31
0.0
  0
ARC
  5
15D
102
{ACAD_REACTORS
330
5AF
102
}
330
1F
100
AcDbEntity
  8
LC-002-002-----0
 62
     7
370
    50
100
AcDbCircle
 10
1591.469265
 20
1772.208731
 30
0.0
 40
5.999999999999796
100
AcDbArc
 50
49.245653
 51
65.0
  0
ARC
  5
15E
102
{ACAD_REACTORS
330
5AF
102
}
330
1F
100
AcDbEntity
  8
LC-002-002-----0
 62
     7
370
    50
100
AcDbCircle
 10
1591.469265
 20
1772.208731
 30
0.0
 40
6.000000000000131
100
AcDbArc
 50
44.040045
 51
49.245653
  0
ARC
  5
15F
102
{ACAD_REACTORS
330
5AF
102
}
330
1F
100
AcDbEntity
  8
LC-002-002-----0
 62
     7
370
    50
100
AcDbCircle
 10
1591.469265
 20
1772.208731
 30
0.0
 40
5.999999999999965
100
AcDbArc
 50
33.491191
 51
44.040045
  0
ARC
  5
160
102
{ACAD_REACTORS
330
5AF
102
}
330
1F
100
AcDbEntity
  8
LC-002-002-----0
 62
     7
370
    50
100
AcDbCircle
 10
1591.469265
 20
1772.208731
 30
0.0
 40
5.999999999999785
100
AcDbArc
 50
27.210137
 51
33.491191
  0
ARC
  5
161
102
{ACAD_REACTORS
330
5AF
102
}
330
1F
100
AcDbEntity
  8
LC-002-002-----0
 62
     7
370
    50
100
AcDbCircle
 10
1591.469265
 20
1772.208731
 30
0.0
 40
6.000000000000087
100
AcDbArc
 50
17.736729
 51
27.210137
  0
ARC
  5
162
102
{ACAD_REACTORS
330
5AF
102
}
330
1F
100
AcDbEntity
  8
LC-002-002-----0
 62
     7
370
    50
100
AcDbCircle
 10
1591.469265
 20
1772.208731
 30
0.0
 40
5.999999999999986
100
AcDbArc
 50
2.0
 51
17.736729
  0
LINE
  5
163
102
{ACAD_REACTORS
330
5AF
102
}
330
1F
100
AcDbEntity
  8
LC-002-002-----0
 62
     7
370
    50
100
AcDbLine
 10
1597.46561
 20
1772.418128
 30
0.0
 11
1601.540608
 21
1655.725475
 31
0.0
  0
ARC
  5
164
102
{ACAD_REACTORS
330
5AF
102
}
330
1F
100
AcDbEntity
  8
LC-002-002-----0
 62
     7
370
    50
100
AcDbCircle
 10
1759.110471
 20
1603.625259
 30
0.0
 40
6.0
100
AcDbArc
 50
0.0
 51
83.0
  0
ARC
  5
165
102
{ACAD_REACTORS
330
5AF
102
}
330
1F
100
AcDbEntity
  8
LC-002-002-----0
 62
     7
370
    50
100
AcDbCircle
 10
1775.110471
 20
1593.76196
 30
0.0
 40
3.000000000000006
100
AcDbArc
 50
274.0
 51
289.471221
  0
LINE
  5
166
102
{ACAD_REACTORS
330
5AF
102
}
330
1F
100
AcDbEntity
  8
LC-002-002-----0
 62
     7
370
    50
100
AcDbLine
 10
1612.532639
 20
1656.145662
 30
0.0
 11
1608.141347
 21
1781.895814
 31
0.0
  0
ARC
  5
167
102
{ACAD_REACTORS
330
5AF
102
}
330
1F
100
AcDbEntity
  8
LC-002-002-----0
 62
     7
370
    50
100
AcDbCircle
 10
1607.141956
 20
1781.860914
 30
0.0
 40
0.9999999999998899
100
AcDbArc
 50
57.333336
 51
85.0
  0
ARC
  5
168
102
{ACAD_REACTORS
330
5AF
102
}
330
1F
100
AcDbEntity
  8
LC-002-002-----0
 62
     7
370
    50
100
AcDbCircle
 10
1607.141956
 20
1781.860914
 30
0.0
 40
0.9999999999998488
100
AcDbArc
 50
2.0
 51
57.333336
  0
ARC
  5
169
102
{ACAD_REACTORS
330
5AF
102
}
330
1F
100
AcDbEntity
  8
LC-002-002-----0
 62
     7
370
    50
100
AcDbCircle
 10
1606.962034
 20
1783.884295
 30
0.0
 40
0.999999999999998
100
AcDbArc
 50
239.999821
 51
265.0
  0
ARC
  5
16A
102
{ACAD_REACTORS
330
5AF
102
}
330
1F
100
AcDbEntity
  8
LC-002-002-----0
 62
     7
370
    50
100
AcDbCircle
 10
1606.962034
 20
1783.884295
 30
0.0
 40
1.000000000000085
100
AcDbArc
 50
190.0
 51
239.999821
  0
ARC
  5
16B
102
{ACAD_REACTORS
330
5AF
102
}
330
1F
100
AcDbEntity
  8
LC-002-002-----0
 62
     7
370
    50
100
AcDbCircle
 10
1601.42663
 20
1792.242047
 30
0.0
 40
3.000000000000295
100
AcDbArc
 50
10.0
 51
85.0
  0
LINE
  5
16C
102
{ACAD_REACTORS
330
5AF
102
}
330
1F
100
AcDbEntity
  8
LC-002-002-----0
 62
     7
370
    50
100
AcDbLine
 10
1592.110471
 20
1885.991435
 30
0.0
 11
1601.688097
 21
1886.829369
 31
0.0
  0
LINE
  5
16D
102
{ACAD_REACTORS
330
5AF
102
}
330
1F
100
AcDbEntity
  8
LC-002-002-----0
 62
     7
370
    50
100
AcDbLine
 10
1604.381053
 20
1889.297009
 30
0.0
 11
1605.977226
 21
1898.349353
 31
0.0
  0
ARC
  5
16E
102
{ACAD_REACTORS
330
5AF
102
}
330
1F
100
AcDbEntity
  8
LC-002-002-----0
 62
     7
370
    50
100
AcDbCircle
 10
1606.962034
 20
1898.175705
 30
0.0
 40
0.9999999999998402
100
AcDbArc
 50
95.0
 51
170.0
  0
LINE
  5
16F
102
{ACAD_REACTORS
330
5AF
102
}
330
1F
100
AcDbEntity
  8
LC-002-002-----0
 62
     7
370
    50
100
AcDbLine
 10
1606.874878
 20
1899.1719
 30
0.0
 11
1607.229112
 21
1899.202891
 31
0.0
  0
ARC
  5
170
102
{ACAD_REACTORS
330
5AF
102
}
330
1F
100
AcDbEntity
  8
LC-002-002-----0
 62
     7
370
    50
100
AcDbCircle
 10
1607.141956
 20
1900.199086
 30
0.0
 40
1.000000000000067
100
AcDbArc
 50
275.0
 51
358.0
  0
LINE
  5
171
102
{ACAD_REACTORS
330
5AF
102
}
330
1F
100
AcDbEntity
  8
LC-002-002-----0
 62
     7
370
    50
100
AcDbLine
 10
1608.141347
 20
1900.164186
 30
0.0
 11
1608.185278
 21
1901.422191
 31
0.0
  0
LINE
  5
172
102
{ACAD_REACTORS
330
5AF
102
}
330
1F
100
AcDbEntity
  8
LC-002-002-----0
 62
     7
370
    50
100
AcDbLine
 10
1601.540608
 20
1655.725475
 30
0.0
 11
1601.540608
 21
1655.725475
 31
0.0
  0
ARC
  5
173
102
{ACAD_REACTORS
330
5AF
102
}
330
1F
100
AcDbEntity
  8
LC-002-002-----0
 62
     7
370
    50
100
AcDbCircle
 10
1592.108963
 20
1910.149501
 30
0.0
 40
5.999996383799902
100
AcDbArc
 50
295.04088
 51
348.558095
  0
LINE
  5
174
102
{ACAD_REACTORS
330
5AF
102
}
330
1F
100
AcDbEntity
  8
LC-002-002-----0
 62
     7
370
    50
100
AcDbLine
 10
1597.989048
 20
1908.956077
 30
0.0
 11
1597.989069
 21
1908.956221
 31
0.0
  0
LINE
  5
175
102
{ACAD_REACTORS
330
5AF
102
}
330
1F
100
AcDbEntity
  8
LC-002-002-----0
 62
     7
370
    50
100
AcDbLine
 10
1607.229112
 20
1782.857109
 30
0.0
 11
1606.874878
 21
1782.8881
 31
0.0
  0
LINE
  5
176
102
{ACAD_REACTORS
330
5AF
102
}
330
1F
100
AcDbEntity
  8
LC-002-002-----0
 62
     7
370
    50
100
AcDbLine
 10
1605.977226
 20
1783.710647
 30
0.0
 11
1604.381053
 21
1792.762991
 31
0.0
  0
LINE
  5
177
102
{ACAD_REACTORS
330
5AF
102
}
330
1F
100
AcDbEntity
  8
LC-002-002-----0
 62
     7
370
    50
100
AcDbLine
 10
1601.688097
 20
1795.230631
 30
0.0
 11
1592.110471
 21
1796.068565
 31
0.0
  0
ARC
  5
178
102
{ACAD_REACTORS
330
5AF
102
}
330
1F
100
AcDbEntity
  8
LC-002-002-----0
 62
     7
370
    50
100
AcDbCircle
 10
1601.42663
 20
1889.817953
 30
0.0
 40
2.999999999999974
100
AcDbArc
 50
275.0
 51
350.0
  0
LINE
  5
179
102
{ACAD_REACTORS
330
5B4
102
}
330
1F
100
AcDbEntity
  8
LC-002-002-----0
 62
     7
370
    50
100
AcDbLine
 10
966.736312
 20
2421.027701
 30
0.0
 11
952.669766
 21
2306.464875
 31
0.0
  0
LINE
  5
17A
102
{ACAD_REACTORS
330
5B4
102
}
330
1F
100
AcDbEntity
  8
LC-002-002-----0
 62
     7
370
    50
100
AcDbLine
 10
627.837384
 20
2421.027701
 30
0.0
 11
642.437899
 21
2302.116053
 31
0.0
  0
ARC
  5
17B
102
{ACAD_REACTORS
330
5B4
102
}
330
1F
100
AcDbEntity
  8
LC-002-002-----0
 62
     7
370
    50
100
AcDbCircle
 10
674.060989
 20
2255.296484
 30
0.0
 40
2.00000000000002
100
AcDbArc
 50
248.333346
 51
270.0
  0
ARC
  5
17C
102
{ACAD_REACTORS
330
5B4
102
}
330
1F
100
AcDbEntity
  8
LC-002-002-----0
 62
     7
370
    50
100
AcDbCircle
 10
674.060989
 20
2255.296484
 30
0.0
 40
2.000000000000019
100
AcDbArc
 50
230.671416
 51
248.333346
  0
ARC
  5
17D
102
{ACAD_REACTORS
330
5B4
102
}
330
1F
100
AcDbEntity
  8
LC-002-002-----0
 62
     7
370
    50
100
AcDbCircle
 10
674.060989
 20
2255.296484
 30
0.0
 40
1.999999999999846
100
AcDbArc
 50
226.66667
 51
230.671416
  0
ARC
  5
17E
102
{ACAD_REACTORS
330
5B4
102
}
330
1F
100
AcDbEntity
  8
LC-002-002-----0
 62
     7
370
    50
100
AcDbCircle
 10
674.060989
 20
2255.296484
 30
0.0
 40
2.000000000000443
100
AcDbArc
 50
222.830244
 51
226.66667
  0
ARC
  5
17F
102
{ACAD_REACTORS
330
5B4
102
}
330
1F
100
AcDbEntity
  8
LC-002-002-----0
 62
     7
370
    50
100
AcDbCircle
 10
674.060989
 20
2255.296484
 30
0.0
 40
1.999999999999981
100
AcDbArc
 50
205.0
 51
222.830244
  0
LINE
  5
180
102
{ACAD_REACTORS
330
5B4
102
}
330
1F
100
AcDbEntity
  8
LC-002-002-----0
 62
     7
370
    50
100
AcDbLine
 10
959.666279
 20
2437.296484
 30
0.0
 11
735.286848
 21
2437.296484
 31
0.0
  0
LINE
  5
181
102
{ACAD_REACTORS
330
5B4
102
}
330
1F
100
AcDbEntity
  8
LC-002-002-----0
 62
     7
370
    50
100
AcDbLine
 10
735.286848
 20
2437.296484
 30
0.0
 11
634.907417
 21
2437.296484
 31
0.0
  0
LINE
  5
182
102
{ACAD_REACTORS
330
5B4
102
}
330
1F
100
AcDbEntity
  8
LC-002-002-----0
 62
     7
370
    50
100
AcDbLine
 10
674.060986
 20
2253.296484
 30
0.0
 11
796.512711
 21
2253.296484
 31
0.0
  0
LINE
  5
183
102
{ACAD_REACTORS
330
5B4
102
}
330
1F
100
AcDbEntity
  8
LC-002-002-----0
 62
     7
370
    50
100
AcDbLine
 10
609.190381
 20
2437.296484
 30
0.0
 11
634.907417
 21
2437.296484
 31
0.0
  0
LINE
  5
184
102
{ACAD_REACTORS
330
5B4
102
}
330
1F
100
AcDbEntity
  8
LC-002-002-----0
 62
     7
370
    50
100
AcDbLine
 10
974.051702
 20
2426.296484
 30
0.0
 11
972.691589
 21
2426.296484
 31
0.0
  0
LINE
  5
185
102
{ACAD_REACTORS
330
5B4
102
}
330
1F
100
AcDbEntity
  8
LC-002-002-----0
 62
     7
370
    50
100
AcDbLine
 10
621.882107
 20
2426.296484
 30
0.0
 11
620.521995
 21
2426.296484
 31
0.0
  0
CIRCLE
  5
186
102
{ACAD_REACTORS
330
5B4
102
}
330
1F
100
AcDbEntity
  8
LC-002-002-----0
 62
     7
370
    50
100
AcDbCircle
 10
797.286848
 20
2399.296484
 30
0.0
 40
15.5
  0
LINE
  5
187
102
{ACAD_REACTORS
330
5B4
102
}
330
1F
100
AcDbEntity
  8
LC-002-002-----0
 62
     7
370
    50
100
AcDbLine
 10
959.666279
 20
2437.296484
 30
0.0
 11
943.73685
 21
2307.561699
 31
0.0
  0
LINE
  5
188
102
{ACAD_REACTORS
330
5B4
102
}
330
1F
100
AcDbEntity
  8
LC-002-002-----0
 62
     7
370
    50
100
AcDbLine
 10
634.907417
 20
2437.296484
 30
0.0
 11
651.370814
 21
2303.212877
 31
0.0
  0
LINE
  5
189
102
{ACAD_REACTORS
330
5B4
102
}
330
1F
100
AcDbEntity
  8
LC-002-002-----0
 62
     7
370
    50
100
AcDbLine
 10
920.567685
 20
2262.725795
 30
0.0
 11
920.55658
 21
2262.725406
 31
0.0
  0
LINE
  5
18A
102
{ACAD_REACTORS
330
5B4
102
}
330
1F
100
AcDbEntity
  8
LC-002-002-----0
 62
     7
370
    50
100
AcDbLine
 10
986.051702
 20
2429.296484
 30
0.0
 11
985.547581
 21
2436.505754
 31
0.0
  0
LINE
  5
18B
102
{ACAD_REACTORS
330
5B4
102
}
330
1F
100
AcDbEntity
  8
LC-002-002-----0
 62
     7
370
    50
100
AcDbLine
 10
667.344263
 20
2259.167376
 30
0.0
 11
667.361265
 21
2259.163998
 31
0.0
  0
LINE
  5
18C
102
{ACAD_REACTORS
330
5B4
102
}
330
1F
100
AcDbEntity
  8
LC-002-002-----0
 62
     7
370
    25
100
AcDbLine
 10
793.536848
 20
2269.296484
 30
0.0
 11
677.036848
 21
2269.296484
 31
0.0
  0
LINE
  5
18D
102
{ACAD_REACTORS
330
5B4
102
}
330
1F
100
AcDbEntity
  8
LC-002-002-----0
 62
     7
370
    25
100
AcDbLine
 10
781.286848
 20
2265.167332
 30
0.0
 11
689.286848
 21
2265.167332
 31
0.0
  0
LINE
  5
18E
102
{ACAD_REACTORS
330
5B4
102
}
330
1F
100
AcDbEntity
  8
LC-002-002-----0
 62
     7
370
    50
100
AcDbLine
 10
608.521995
 20
2429.296484
 30
0.0
 11
609.026116
 21
2436.505754
 31
0.0
  0
LINE
  5
18F
102
{ACAD_REACTORS
330
5B4
102
}
330
1F
100
AcDbEntity
  8
LC-002-002-----0
 62
     7
370
    50
100
AcDbLine
 10
674.970814
 20
2269.368632
 30
0.0
 11
676.152662
 21
2269.327361
 31
0.0
  0
LINE
  5
190
102
{ACAD_REACTORS
330
5B4
102
}
330
1F
100
AcDbEntity
  8
LC-002-002-----0
 62
     7
370
    50
100
AcDbLine
 10
608.521995
 20
2429.296484
 30
0.0
 11
620.521995
 21
2429.296484
 31
0.0
  0
ARC
  5
191
102
{ACAD_REACTORS
330
5B4
102
}
330
1F
100
AcDbEntity
  8
LC-002-002-----0
 62
     7
370
    50
100
AcDbCircle
 10
676.117762
 20
2268.32797
 30
0.0
 40
1.000000000000018
100
AcDbArc
 50
5.000008
 51
32.666665
  0
ARC
  5
192
102
{ACAD_REACTORS
330
5B4
102
}
330
1F
100
AcDbEntity
  8
LC-002-002-----0
 62
     7
370
    50
100
AcDbCircle
 10
676.117762
 20
2268.32797
 30
0.0
 40
1.000000000000054
100
AcDbArc
 50
32.666665
 51
87.999995
  0
LINE
  5
193
102
{ACAD_REACTORS
330
5B4
102
}
330
1F
100
AcDbEntity
  8
LC-002-002-----0
 62
     7
370
    50
100
AcDbLine
 10
620.521995
 20
2426.296484
 30
0.0
 11
620.521995
 21
2429.296484
 31
0.0
  0
ARC
  5
194
102
{ACAD_REACTORS
330
5B4
102
}
330
1F
100
AcDbEntity
  8
LC-002-002-----0
 62
     7
370
    50
100
AcDbCircle
 10
678.141143
 20
2268.148047
 30
0.0
 40
0.9999999999999673
100
AcDbArc
 50
185.000004
 51
210.000066
  0
ARC
  5
195
102
{ACAD_REACTORS
330
5B4
102
}
330
1F
100
AcDbEntity
  8
LC-002-002-----0
 62
     7
370
    50
100
AcDbCircle
 10
678.141143
 20
2268.148047
 30
0.0
 40
1.000000000000094
100
AcDbArc
 50
210.000066
 51
259.999621
  0
LINE
  5
196
102
{ACAD_REACTORS
330
5B4
102
}
330
1F
100
AcDbEntity
  8
LC-002-002-----0
 62
     7
370
    50
100
AcDbLine
 10
974.051702
 20
2426.296484
 30
0.0
 11
974.051702
 21
2429.296484
 31
0.0
  0
ARC
  5
197
102
{ACAD_REACTORS
330
5B4
102
}
330
1F
100
AcDbEntity
  8
LC-002-002-----0
 62
     7
370
    50
100
AcDbCircle
 10
686.498895
 20
2262.612644
 30
0.0
 40
2.999999999999638
100
AcDbArc
 50
5.000003
 51
80.0
  0
LINE
  5
198
102
{ACAD_REACTORS
330
5B4
102
}
330
1F
100
AcDbEntity
  8
LC-002-002-----0
 62
     7
370
    50
100
AcDbLine
 10
781.086217
 20
2262.874111
 30
0.0
 11
780.248284
 21
2253.296484
 31
0.0
  0
LINE
  5
199
102
{ACAD_REACTORS
330
5B4
102
}
330
1F
100
AcDbEntity
  8
LC-002-002-----0
 62
     7
370
    50
100
AcDbLine
 10
792.606201
 20
2267.16324
 30
0.0
 11
783.553857
 21
2265.567067
 31
0.0
  0
LINE
  5
19A
102
{ACAD_REACTORS
330
5B4
102
}
330
1F
100
AcDbEntity
  8
LC-002-002-----0
 62
     7
370
    50
100
AcDbLine
 10
793.459739
 20
2268.415126
 30
0.0
 11
793.428748
 21
2268.060892
 31
0.0
  0
LINE
  5
19B
102
{ACAD_REACTORS
330
5B4
102
}
330
1F
100
AcDbEntity
  8
LC-002-002-----0
 62
     7
370
    50
100
AcDbLine
 10
920.13685
 20
2273.717454
 30
0.0
 11
794.421035
 21
2269.327361
 31
0.0
  0
ARC
  5
19C
102
{ACAD_REACTORS
330
5B4
102
}
330
1F
100
AcDbEntity
  8
LC-002-002-----0
 62
     7
370
    50
100
AcDbCircle
 10
982.554888
 20
2436.296484
 30
0.0
 40
3.000000000000006
100
AcDbArc
 50
4.0
 51
19.471221
  0
ARC
  5
19D
102
{ACAD_REACTORS
330
5B4
102
}
330
1F
100
AcDbEntity
  8
LC-002-002-----0
 62
     7
370
    50
100
AcDbCircle
 10
972.691589
 20
2420.296484
 30
0.0
 40
6.0
100
AcDbArc
 50
90.0
 51
173.0
  0
LINE
  5
19E
102
{ACAD_REACTORS
330
5B4
102
}
330
1F
100
AcDbEntity
  8
LC-002-002-----0
 62
     7
370
    50
100
AcDbLine
 10
803.89872
 20
2258.651624
 30
0.0
 11
920.556862
 21
2262.725416
 31
0.0
  0
ARC
  5
19F
102
{ACAD_REACTORS
330
5B4
102
}
330
1F
100
AcDbEntity
  8
LC-002-002-----0
 62
     7
370
    50
100
AcDbCircle
 10
804.108117
 20
2252.655279
 30
0.0
 40
5.999999999999986
100
AcDbArc
 50
92.0
 51
155.0
  0
LINE
  5
1A0
102
{ACAD_REACTORS
330
5B4
102
}
330
1F
100
AcDbEntity
  8
LC-002-002-----0
 62
     7
370
    50
100
AcDbLine
 10
798.67027
 20
2255.190989
 30
0.0
 11
798.325323
 21
2254.451248
 31
0.0
  0
ARC
  5
1A1
102
{ACAD_REACTORS
330
5B4
102
}
330
1F
100
AcDbEntity
  8
LC-002-002-----0
 62
     7
370
    50
100
AcDbCircle
 10
796.512708
 20
2255.296484
 30
0.0
 40
2.000000000000006
100
AcDbArc
 50
270.000087
 51
334.999973
  0
ARC
  5
1A2
102
{ACAD_REACTORS
330
5B4
102
}
330
1F
100
AcDbEntity
  8
LC-002-002-----0
 62
     7
370
    50
100
AcDbCircle
 10
674.060989
 20
2255.296484
 30
0.0
 40
2.000000000000159
100
AcDbArc
 50
205.000027
 51
222.918067
  0
ARC
  5
1A3
102
{ACAD_REACTORS
330
5B4
102
}
330
1F
100
AcDbEntity
  8
LC-002-002-----0
 62
     7
370
    50
100
AcDbCircle
 10
674.060989
 20
2255.296484
 30
0.0
 40
2.000000000000147
100
AcDbArc
 50
222.918067
 51
226.66667
  0
ARC
  5
1A4
102
{ACAD_REACTORS
330
5B4
102
}
330
1F
100
AcDbEntity
  8
LC-002-002-----0
 62
     7
370
    50
100
AcDbCircle
 10
674.060989
 20
2255.296484
 30
0.0
 40
2.000000000000004
100
AcDbArc
 50
226.66667
 51
230.622089
  0
ARC
  5
1A5
102
{ACAD_REACTORS
330
5B4
102
}
330
1F
100
AcDbEntity
  8
LC-002-002-----0
 62
     7
370
    50
100
AcDbCircle
 10
674.060989
 20
2255.296484
 30
0.0
 40
1.999999999999987
100
AcDbArc
 50
230.622089
 51
248.333346
  0
ARC
  5
1A6
102
{ACAD_REACTORS
330
5B4
102
}
330
1F
100
AcDbEntity
  8
LC-002-002-----0
 62
     7
370
    50
100
AcDbCircle
 10
674.060989
 20
2255.296484
 30
0.0
 40
1.999999999999925
100
AcDbArc
 50
248.333346
 51
269.999913
  0
LINE
  5
1A7
102
{ACAD_REACTORS
330
5B4
102
}
330
1F
100
AcDbEntity
  8
LC-002-002-----0
 62
     7
370
    50
100
AcDbLine
 10
671.600373
 20
2255.840889
 30
0.0
 11
672.248373
 21
2254.451248
 31
0.0
  0
ARC
  5
1A8
102
{ACAD_REACTORS
330
5B4
102
}
330
1F
100
AcDbEntity
  8
LC-002-002-----0
 62
     7
370
    50
100
AcDbCircle
 10
621.882107
 20
2420.296484
 30
0.0
 40
5.999999999999985
100
AcDbArc
 50
7.0
 51
90.0
  0
ARC
  5
1A9
102
{ACAD_REACTORS
330
5B4
102
}
330
1F
100
AcDbEntity
  8
LC-002-002-----0
 62
     7
370
    50
100
AcDbCircle
 10
612.018808
 20
2436.296484
 30
0.0
 40
2.999999999996485
100
AcDbArc
 50
160.528779
 51
176.0
  0
ARC
  5
1AA
102
{ACAD_REACTORS
330
5B4
102
}
330
1F
100
AcDbEntity
  8
LC-002-002-----0
 62
     7
370
    50
100
AcDbCircle
 10
666.173135
 20
2253.282603
 30
0.0
 40
5.999995289000136
100
AcDbArc
 50
25.040473
 51
78.780626
  0
LINE
  5
1AB
102
{ACAD_REACTORS
330
5B4
102
}
330
1F
100
AcDbEntity
  8
LC-002-002-----0
 62
     7
370
    50
100
AcDbLine
 10
667.357432
 20
2259.165146
 30
0.0
 11
667.343843
 21
2259.167238
 31
0.0
  0
LINE
  5
1AC
102
{ACAD_REACTORS
330
5B4
102
}
330
1F
100
AcDbEntity
  8
LC-002-002-----0
 62
     7
370
    50
100
AcDbLine
 10
677.967495
 20
2267.16324
 30
0.0
 11
687.019839
 21
2265.567067
 31
0.0
  0
LINE
  5
1AD
102
{ACAD_REACTORS
330
5B4
102
}
330
1F
100
AcDbEntity
  8
LC-002-002-----0
 62
     7
370
    50
100
AcDbLine
 10
689.487479
 20
2262.874111
 30
0.0
 11
690.325413
 21
2253.296484
 31
0.0
  0
ARC
  5
1AE
102
{ACAD_REACTORS
330
5B4
102
}
330
1F
100
AcDbEntity
  8
LC-002-002-----0
 62
     7
370
    50
100
AcDbCircle
 10
784.074801
 20
2262.612644
 30
0.0
 40
2.999999999999687
100
AcDbArc
 50
100.0
 51
174.999997
  0
ARC
  5
1AF
102
{ACAD_REACTORS
330
5B4
102
}
330
1F
100
AcDbEntity
  8
LC-002-002-----0
 62
     7
370
    50
100
AcDbCircle
 10
792.432553
 20
2268.148047
 30
0.0
 40
0.9999999999998724
100
AcDbArc
 50
280.000379
 51
354.999996
  0
ARC
  5
1B0
102
{ACAD_REACTORS
330
5B4
102
}
330
1F
100
AcDbEntity
  8
LC-002-002-----0
 62
     7
370
    50
100
AcDbCircle
 10
794.455934
 20
2268.32797
 30
0.0
 40
1.00000000000006
100
AcDbArc
 50
92.000005
 51
174.999992
  0
LINE
  5
1B1
102
{ACAD_REACTORS
330
5B4
102
}
330
1F
100
AcDbEntity
  8
LC-002-002-----0
 62
     7
370
    50
100
AcDbLine
 10
677.113957
 20
2268.415126
 30
0.0
 11
677.144949
 21
2268.060892
 31
0.0
  0
LINE
  5
1B2
102
{ACAD_REACTORS
330
5B4
102
}
330
1F
100
AcDbEntity
  8
LC-005-006-MLN-0
 62
     7
370
    25
100
AcDbLine
 10
735.286848
 20
2250.296484
 30
0.0
 11
735.286848
 21
2272.296484
 31
0.0
  0
LINE
  5
1B3
102
{ACAD_REACTORS
330
5B4
102
}
330
1F
100
AcDbEntity
  8
LC-002-002-----0
 62
     7
370
    50
100
AcDbLine
 10
974.051702
 20
2429.296484
 30
0.0
 11
986.051702
 21
2429.296484
 31
0.0
  0
LINE
  5
1B4
102
{ACAD_REACTORS
330
5B4
102
}
330
1F
100
AcDbEntity
  8
LC-002-002-----0
 62
     7
370
    50
100
AcDbLine
 10
959.666279
 20
2437.296484
 30
0.0
 11
985.383316
 21
2437.296484
 31
0.0
  0
LINE
  5
1B5
102
{ACAD_REACTORS
330
5B4
102
}
330
1F
100
AcDbEntity
  8
LC-002-002-----0
 62
     7
370
    50
100
AcDbLine
 10
667.361132
 20
2259.164025
 30
0.0
 11
661.52709
 21
2260.93196
 31
0.0
  0
LINE
  5
1B6
102
{ACAD_REACTORS
330
5B4
102
}
330
1F
100
AcDbEntity
  8
LC-002-002-----0
 62
     7
370
    50
100
AcDbLine
 10
661.52709
 20
2260.93196
 30
0.0
 11
656.589772
 21
2263.874852
 31
0.0
  0
LINE
  5
1B7
102
{ACAD_REACTORS
330
5B4
102
}
330
1F
100
AcDbEntity
  8
LC-002-002-----0
 62
     7
370
    50
100
AcDbLine
 10
656.589772
 20
2263.874852
 30
0.0
 11
652.591614
 21
2267.993557
 31
0.0
  0
LINE
  5
1B8
102
{ACAD_REACTORS
330
5B4
102
}
330
1F
100
AcDbEntity
  8
LC-002-002-----0
 62
     7
370
    50
100
AcDbLine
 10
652.591614
 20
2267.993557
 30
0.0
 11
649.453041
 21
2273.14155
 31
0.0
  0
LINE
  5
1B9
102
{ACAD_REACTORS
330
5B4
102
}
330
1F
100
AcDbEntity
  8
LC-002-002-----0
 62
     7
370
    50
100
AcDbLine
 10
649.453041
 20
2273.14155
 30
0.0
 11
647.043056
 21
2279.14713
 31
0.0
  0
LINE
  5
1BA
102
{ACAD_REACTORS
330
5B4
102
}
330
1F
100
AcDbEntity
  8
LC-002-002-----0
 62
     7
370
    50
100
AcDbLine
 10
647.043056
 20
2279.14713
 30
0.0
 11
645.195516
 21
2285.831815
 31
0.0
  0
LINE
  5
1BB
102
{ACAD_REACTORS
330
5B4
102
}
330
1F
100
AcDbEntity
  8
LC-002-002-----0
 62
     7
370
    50
100
AcDbLine
 10
645.195516
 20
2285.831815
 30
0.0
 11
643.687007
 21
2293.426423
 31
0.0
  0
LINE
  5
1BC
102
{ACAD_REACTORS
330
5B4
102
}
330
1F
100
AcDbEntity
  8
LC-002-002-----0
 62
     7
370
    50
100
AcDbLine
 10
643.687007
 20
2293.426423
 30
0.0
 11
642.438186
 21
2302.113718
 31
0.0
  0
LINE
  5
1BD
102
{ACAD_REACTORS
330
5B4
102
}
330
1F
100
AcDbEntity
  8
LC-002-002-----0
 62
     7
370
    50
100
AcDbLine
 10
651.371067
 20
2303.21082
 30
0.0
 11
652.299101
 21
2296.66752
 31
0.0
  0
LINE
  5
1BE
102
{ACAD_REACTORS
330
5B4
102
}
330
1F
100
AcDbEntity
  8
LC-002-002-----0
 62
     7
370
    50
100
AcDbLine
 10
652.299101
 20
2296.66752
 30
0.0
 11
653.401435
 21
2290.907147
 31
0.0
  0
LINE
  5
1BF
102
{ACAD_REACTORS
330
5B4
102
}
330
1F
100
AcDbEntity
  8
LC-002-002-----0
 62
     7
370
    50
100
AcDbLine
 10
653.401435
 20
2290.907147
 30
0.0
 11
654.737164
 21
2285.790601
 31
0.0
  0
LINE
  5
1C0
102
{ACAD_REACTORS
330
5B4
102
}
330
1F
100
AcDbEntity
  8
LC-002-002-----0
 62
     7
370
    50
100
AcDbLine
 10
654.737164
 20
2285.790601
 30
0.0
 11
656.467949
 21
2281.147639
 31
0.0
  0
LINE
  5
1C1
102
{ACAD_REACTORS
330
5B4
102
}
330
1F
100
AcDbEntity
  8
LC-002-002-----0
 62
     7
370
    50
100
AcDbLine
 10
656.467949
 20
2281.147639
 30
0.0
 11
658.730029
 21
2277.094486
 31
0.0
  0
LINE
  5
1C2
102
{ACAD_REACTORS
330
5B4
102
}
330
1F
100
AcDbEntity
  8
LC-002-002-----0
 62
     7
370
    50
100
AcDbLine
 10
658.730029
 20
2277.094486
 30
0.0
 11
661.672113
 21
2273.774375
 31
0.0
  0
LINE
  5
1C3
102
{ACAD_REACTORS
330
5B4
102
}
330
1F
100
AcDbEntity
  8
LC-002-002-----0
 62
     7
370
    50
100
AcDbLine
 10
661.672113
 20
2273.774375
 30
0.0
 11
665.414421
 21
2271.364399
 31
0.0
  0
LINE
  5
1C4
102
{ACAD_REACTORS
330
5B4
102
}
330
1F
100
AcDbEntity
  8
LC-002-002-----0
 62
     7
370
    50
100
AcDbLine
 10
665.414421
 20
2271.364399
 30
0.0
 11
669.921446
 21
2269.932408
 31
0.0
  0
LINE
  5
1C5
102
{ACAD_REACTORS
330
5B4
102
}
330
1F
100
AcDbEntity
  8
LC-002-002-----0
 62
     7
370
    50
100
AcDbLine
 10
669.921446
 20
2269.932408
 30
0.0
 11
674.959777
 21
2269.369019
 31
0.0
  0
LINE
  5
1C6
102
{ACAD_REACTORS
330
5B4
102
}
330
1F
100
AcDbEntity
  8
LC-002-002-----0
 62
     7
370
    50
100
AcDbLine
 10
920.147893
 20
2273.717841
 30
0.0
 11
925.202266
 21
2274.284475
 31
0.0
  0
LINE
  5
1C7
102
{ACAD_REACTORS
330
5B4
102
}
330
1F
100
AcDbEntity
  8
LC-002-002-----0
 62
     7
370
    50
100
AcDbLine
 10
925.202266
 20
2274.284475
 30
0.0
 11
929.725819
 21
2275.728246
 31
0.0
  0
LINE
  5
1C8
102
{ACAD_REACTORS
330
5B4
102
}
330
1F
100
AcDbEntity
  8
LC-002-002-----0
 62
     7
370
    50
100
AcDbLine
 10
929.725819
 20
2275.728246
 30
0.0
 11
933.471935
 21
2278.154937
 31
0.0
  0
LINE
  5
1C9
102
{ACAD_REACTORS
330
5B4
102
}
330
1F
100
AcDbEntity
  8
LC-002-002-----0
 62
     7
370
    50
100
AcDbLine
 10
933.471935
 20
2278.154937
 30
0.0
 11
936.407033
 21
2281.48579
 31
0.0
  0
LINE
  5
1CA
102
{ACAD_REACTORS
330
5B4
102
}
330
1F
100
AcDbEntity
  8
LC-002-002-----0
 62
     7
370
    50
100
AcDbLine
 10
936.407033
 20
2281.48579
 30
0.0
 11
938.65988
 21
2285.541202
 31
0.0
  0
LINE
  5
1CB
102
{ACAD_REACTORS
330
5B4
102
}
330
1F
100
AcDbEntity
  8
LC-002-002-----0
 62
     7
370
    50
100
AcDbLine
 10
938.65988
 20
2285.541202
 30
0.0
 11
940.38299
 21
2290.179969
 31
0.0
  0
LINE
  5
1CC
102
{ACAD_REACTORS
330
5B4
102
}
330
1F
100
AcDbEntity
  8
LC-002-002-----0
 62
     7
370
    50
100
AcDbLine
 10
940.38299
 20
2290.179969
 30
0.0
 11
941.713743
 21
2295.289788
 31
0.0
  0
LINE
  5
1CD
102
{ACAD_REACTORS
330
5B4
102
}
330
1F
100
AcDbEntity
  8
LC-002-002-----0
 62
     7
370
    50
100
AcDbLine
 10
941.713743
 20
2295.289788
 30
0.0
 11
942.811769
 21
2301.035852
 31
0.0
  0
LINE
  5
1CE
102
{ACAD_REACTORS
330
5B4
102
}
330
1F
100
AcDbEntity
  8
LC-002-002-----0
 62
     7
370
    50
100
AcDbLine
 10
942.811769
 20
2301.035852
 30
0.0
 11
943.736587
 21
2307.559551
 31
0.0
  0
LINE
  5
1CF
102
{ACAD_REACTORS
330
5B4
102
}
330
1F
100
AcDbEntity
  8
LC-002-002-----0
 62
     7
370
    50
100
AcDbLine
 10
952.669463
 20
2306.462408
 30
0.0
 11
951.409102
 21
2297.706855
 31
0.0
  0
LINE
  5
1D0
102
{ACAD_REACTORS
330
5B4
102
}
330
1F
100
AcDbEntity
  8
LC-002-002-----0
 62
     7
370
    50
100
AcDbLine
 10
951.409102
 20
2297.706855
 30
0.0
 11
949.88409
 21
2290.060654
 31
0.0
  0
LINE
  5
1D1
102
{ACAD_REACTORS
330
5B4
102
}
330
1F
100
AcDbEntity
  8
LC-002-002-----0
 62
     7
370
    50
100
AcDbLine
 10
949.88409
 20
2290.060654
 30
0.0
 11
948.010027
 21
2283.331067
 31
0.0
  0
LINE
  5
1D2
102
{ACAD_REACTORS
330
5B4
102
}
330
1F
100
AcDbEntity
  8
LC-002-002-----0
 62
     7
370
    50
100
AcDbLine
 10
948.010027
 20
2283.331067
 30
0.0
 11
945.55776
 21
2277.294201
 31
0.0
  0
LINE
  5
1D3
102
{ACAD_REACTORS
330
5B4
102
}
330
1F
100
AcDbEntity
  8
LC-002-002-----0
 62
     7
370
    50
100
AcDbLine
 10
945.55776
 20
2277.294201
 30
0.0
 11
942.355691
 21
2272.134083
 31
0.0
  0
LINE
  5
1D4
102
{ACAD_REACTORS
330
5B4
102
}
330
1F
100
AcDbEntity
  8
LC-002-002-----0
 62
     7
370
    50
100
AcDbLine
 10
942.355691
 20
2272.134083
 30
0.0
 11
938.266265
 21
2268.026317
 31
0.0
  0
LINE
  5
1D5
102
{ACAD_REACTORS
330
5B4
102
}
330
1F
100
AcDbEntity
  8
LC-002-002-----0
 62
     7
370
    50
100
AcDbLine
 10
938.266265
 20
2268.026317
 30
0.0
 11
933.204305
 21
2265.122471
 31
0.0
  0
LINE
  5
1D6
102
{ACAD_REACTORS
330
5B4
102
}
330
1F
100
AcDbEntity
  8
LC-002-002-----0
 62
     7
370
    50
100
AcDbLine
 10
933.204305
 20
2265.122471
 30
0.0
 11
927.223652
 21
2263.413088
 31
0.0
  0
LINE
  5
1D7
102
{ACAD_REACTORS
330
5B4
102
}
330
1F
100
AcDbEntity
  8
LC-002-002-----0
 62
     7
370
    50
100
AcDbLine
 10
927.223652
 20
2263.413088
 30
0.0
 11
920.567685
 21
2262.725795
 31
0.0
  0
LINE
  5
1D8
102
{ACAD_REACTORS
330
5AF
102
}
330
1F
100
AcDbEntity
  8
LC-002-002-----0
 62
     7
370
    50
100
AcDbLine
 10
1776.110471
 20
1941.409431
 30
0.0
 11
1776.110471
 21
1967.126467
 31
0.0
  0
LINE
  5
1D9
102
{ACAD_REACTORS
330
5AF
102
}
330
1F
100
AcDbEntity
  8
LC-002-002-----0
 62
     7
370
    50
100
AcDbLine
 10
1640.94608
 20
1933.880919
 30
0.0
 11
1632.248016
 21
1932.623966
 31
0.0
  0
LINE
  5
1DA
102
{ACAD_REACTORS
330
5AF
102
}
330
1F
100
AcDbEntity
  8
LC-002-002-----0
 62
     7
370
    50
100
AcDbLine
 10
1632.248016
 20
1932.623966
 30
0.0
 11
1624.648787
 21
1931.096132
 31
0.0
  0
LINE
  5
1DB
102
{ACAD_REACTORS
330
5AF
102
}
330
1F
100
AcDbEntity
  8
LC-002-002-----0
 62
     7
370
    50
100
AcDbLine
 10
1624.648787
 20
1931.096132
 30
0.0
 11
1617.968393
 21
1929.221356
 31
0.0
  0
LINE
  5
1DC
102
{ACAD_REACTORS
330
5AF
102
}
330
1F
100
AcDbEntity
  8
LC-002-002-----0
 62
     7
370
    50
100
AcDbLine
 10
1617.968393
 20
1929.221356
 30
0.0
 11
1611.977029
 21
1926.785914
 31
0.0
  0
LINE
  5
1DD
102
{ACAD_REACTORS
330
5AF
102
}
330
1F
100
AcDbEntity
  8
LC-002-002-----0
 62
     7
370
    50
100
AcDbLine
 10
1611.977029
 20
1926.785914
 30
0.0
 11
1606.850119
 21
1923.641425
 31
0.0
  0
LINE
  5
1DE
102
{ACAD_REACTORS
330
5AF
102
}
330
1F
100
AcDbEntity
  8
LC-002-002-----0
 62
     7
370
    50
100
AcDbLine
 10
1606.850119
 20
1923.641425
 30
0.0
 11
1602.743642
 21
1919.664969
 31
0.0
  0
LINE
  5
1DF
102
{ACAD_REACTORS
330
5AF
102
}
330
1F
100
AcDbEntity
  8
LC-002-002-----0
 62
     7
370
    50
100
AcDbLine
 10
1602.743642
 20
1919.664969
 30
0.0
 11
1599.786729
 21
1914.763961
 31
0.0
  0
LINE
  5
1E0
102
{ACAD_REACTORS
330
5AF
102
}
330
1F
100
AcDbEntity
  8
LC-002-002-----0
 62
     7
370
    50
100
AcDbLine
 10
1599.786729
 20
1914.763961
 30
0.0
 11
1599.487847
 21
1913.798111
 31
0.0
  0
LINE
  5
1E1
102
{ACAD_REACTORS
330
5AF
102
}
330
1F
100
AcDbEntity
  8
LC-002-002-----0
 62
     7
370
    50
100
AcDbLine
 10
1608.185716
 20
1901.433289
 30
0.0
 11
1608.768473
 21
1906.479213
 31
0.0
  0
LINE
  5
1E2
102
{ACAD_REACTORS
330
5AF
102
}
330
1F
100
AcDbEntity
  8
LC-002-002-----0
 62
     7
370
    50
100
AcDbLine
 10
1608.768473
 20
1906.479213
 30
0.0
 11
1610.249465
 21
1910.977751
 31
0.0
  0
LINE
  5
1E3
102
{ACAD_REACTORS
330
5AF
102
}
330
1F
100
AcDbEntity
  8
LC-002-002-----0
 62
     7
370
    50
100
AcDbLine
 10
1610.249465
 20
1910.977751
 30
0.0
 11
1612.697996
 21
1914.682542
 31
0.0
  0
LINE
  5
1E4
102
{ACAD_REACTORS
330
5AF
102
}
330
1F
100
AcDbEntity
  8
LC-002-002-----0
 62
     7
370
    50
100
AcDbLine
 10
1612.697996
 20
1914.682542
 30
0.0
 11
1616.022191
 21
1917.588608
 31
0.0
  0
LINE
  5
1E5
102
{ACAD_REACTORS
330
5AF
102
}
330
1F
100
AcDbEntity
  8
LC-002-002-----0
 62
     7
370
    50
100
AcDbLine
 10
1616.022191
 20
1917.588608
 30
0.0
 11
1620.059474
 21
1919.835324
 31
0.0
  0
LINE
  5
1E6
102
{ACAD_REACTORS
330
5AF
102
}
330
1F
100
AcDbEntity
  8
LC-002-002-----0
 62
     7
370
    50
100
AcDbLine
 10
1620.059474
 20
1919.835324
 30
0.0
 11
1624.680273
 21
1921.567729
 31
0.0
  0
LINE
  5
1E7
102
{ACAD_REACTORS
330
5AF
102
}
330
1F
100
AcDbEntity
  8
LC-002-002-----0
 62
     7
370
    50
100
AcDbLine
 10
1624.680273
 20
1921.567729
 30
0.0
 11
1629.776633
 21
1922.911503
 31
0.0
  0
LINE
  5
1E8
102
{ACAD_REACTORS
330
5AF
102
}
330
1F
100
AcDbEntity
  8
LC-002-002-----0
 62
     7
370
    50
100
AcDbLine
 10
1629.776633
 20
1922.911503
 30
0.0
 11
1635.511625
 21
1924.018452
 31
0.0
  0
LINE
  5
1E9
102
{ACAD_REACTORS
330
5AF
102
}
330
1F
100
AcDbEntity
  8
LC-002-002-----0
 62
     7
370
    50
100
AcDbLine
 10
1635.511625
 20
1924.018452
 30
0.0
 11
1642.024763
 21
1924.945776
 31
0.0
  0
LINE
  5
1EA
102
{ACAD_REACTORS
330
5AF
102
}
330
1F
100
AcDbEntity
  8
LC-002-002-----0
 62
     7
370
    50
100
AcDbLine
 10
1646.373552
 20
1632.58026
 30
0.0
 11
1639.814097
 21
1633.510736
 31
0.0
  0
LINE
  5
1EB
102
{ACAD_REACTORS
330
5AF
102
}
330
1F
100
AcDbEntity
  8
LC-002-002-----0
 62
     7
370
    50
100
AcDbLine
 10
1639.814097
 20
1633.510736
 30
0.0
 11
1634.043437
 21
1634.615601
 31
0.0
  0
LINE
  5
1EC
102
{ACAD_REACTORS
330
5AF
102
}
330
1F
100
AcDbEntity
  8
LC-002-002-----0
 62
     7
370
    50
100
AcDbLine
 10
1634.043437
 20
1634.615601
 30
0.0
 11
1628.921809
 21
1635.953953
 31
0.0
  0
LINE
  5
1ED
102
{ACAD_REACTORS
330
5AF
102
}
330
1F
100
AcDbEntity
  8
LC-002-002-----0
 62
     7
370
    50
100
AcDbLine
 10
1628.921809
 20
1635.953953
 30
0.0
 11
1624.278618
 21
1637.687399
 31
0.0
  0
LINE
  5
1EE
102
{ACAD_REACTORS
330
5AF
102
}
330
1F
100
AcDbEntity
  8
LC-002-002-----0
 62
     7
370
    50
100
AcDbLine
 10
1624.278618
 20
1637.687399
 30
0.0
 11
1620.235743
 21
1639.94691
 31
0.0
  0
LINE
  5
1EF
102
{ACAD_REACTORS
330
5AF
102
}
330
1F
100
AcDbEntity
  8
LC-002-002-----0
 62
     7
370
    50
100
AcDbLine
 10
1620.235743
 20
1639.94691
 30
0.0
 11
1616.93124
 21
1642.876607
 31
0.0
  0
LINE
  5
1F0
102
{ACAD_REACTORS
330
5AF
102
}
330
1F
100
AcDbEntity
  8
LC-002-002-----0
 62
     7
370
    50
100
AcDbLine
 10
1616.93124
 20
1642.876607
 30
0.0
 11
1614.530916
 21
1646.599223
 31
0.0
  0
LINE
  5
1F1
102
{ACAD_REACTORS
330
5AF
102
}
330
1F
100
AcDbEntity
  8
LC-002-002-----0
 62
     7
370
    50
100
AcDbLine
 10
1614.530916
 20
1646.599223
 30
0.0
 11
1613.098021
 21
1651.095995
 31
0.0
  0
LINE
  5
1F2
102
{ACAD_REACTORS
330
5AF
102
}
330
1F
100
AcDbEntity
  8
LC-002-002-----0
 62
     7
370
    50
100
AcDbLine
 10
1613.098021
 20
1651.095995
 30
0.0
 11
1612.533044
 21
1656.134071
 31
0.0
  0
LINE
  5
1F3
102
{ACAD_REACTORS
330
5AF
102
}
330
1F
100
AcDbEntity
  8
LC-002-002-----0
 62
     7
370
    50
100
AcDbLine
 10
1601.541011
 20
1655.713908
 30
0.0
 11
1602.226661
 21
1649.07481
 31
0.0
  0
LINE
  5
1F4
102
{ACAD_REACTORS
330
5AF
102
}
330
1F
100
AcDbEntity
  8
LC-002-002-----0
 62
     7
370
    50
100
AcDbLine
 10
1602.226661
 20
1649.07481
 30
0.0
 11
1603.926214
 21
1643.12069
 31
0.0
  0
LINE
  5
1F5
102
{ACAD_REACTORS
330
5AF
102
}
330
1F
100
AcDbEntity
  8
LC-002-002-----0
 62
     7
370
    50
100
AcDbLine
 10
1603.926214
 20
1643.12069
 30
0.0
 11
1606.804045
 21
1638.085485
 31
0.0
  0
LINE
  5
1F6
102
{ACAD_REACTORS
330
5AF
102
}
330
1F
100
AcDbEntity
  8
LC-002-002-----0
 62
     7
370
    50
100
AcDbLine
 10
1606.804045
 20
1638.085485
 30
0.0
 11
1610.880705
 21
1634.005898
 31
0.0
  0
LINE
  5
1F7
102
{ACAD_REACTORS
330
5AF
102
}
330
1F
100
AcDbEntity
  8
LC-002-002-----0
 62
     7
370
    50
100
AcDbLine
 10
1610.880705
 20
1634.005898
 30
0.0
 11
1616.022527
 21
1630.797287
 31
0.0
  0
LINE
  5
1F8
102
{ACAD_REACTORS
330
5AF
102
}
330
1F
100
AcDbEntity
  8
LC-002-002-----0
 62
     7
370
    50
100
AcDbLine
 10
1616.022527
 20
1630.797287
 30
0.0
 11
1622.062572
 21
1628.331912
 31
0.0
  0
LINE
  5
1F9
102
{ACAD_REACTORS
330
5AF
102
}
330
1F
100
AcDbEntity
  8
LC-002-002-----0
 62
     7
370
    50
100
AcDbLine
 10
1622.062572
 20
1628.331912
 30
0.0
 11
1628.805676
 21
1626.447909
 31
0.0
  0
LINE
  5
1FA
102
{ACAD_REACTORS
330
5AF
102
}
330
1F
100
AcDbEntity
  8
LC-002-002-----0
 62
     7
370
    50
100
AcDbLine
 10
1628.805676
 20
1626.447909
 30
0.0
 11
1636.479852
 21
1624.914426
 31
0.0
  0
LINE
  5
1FB
102
{ACAD_REACTORS
330
5AF
102
}
330
1F
100
AcDbEntity
  8
LC-002-002-----0
 62
     7
370
    50
100
AcDbLine
 10
1636.479852
 20
1624.914426
 30
0.0
 11
1645.275718
 21
1623.647468
 31
0.0
  0
LINE
  5
1FC
102
{ACAD_REACTORS
330
5B0
102
}
330
1F
100
AcDbEntity
  8
LC-002-002-----0
 62
     7
370
    50
100
AcDbLine
 10
1034.336306
 20
2465.296484
 30
0.0
 11
963.104247
 21
2465.296484
 31
0.0
  0
LINE
  5
1FD
102
{ACAD_REACTORS
330
5B0
102
}
330
1F
100
AcDbEntity
  8
LC-002-002-----0
 62
     7
370
    50
100
AcDbLine
 10
963.104247
 20
2465.296484
 30
0.0
 11
959.666279
 21
2437.296484
 31
0.0
  0
LINE
  5
1FE
102
{ACAD_REACTORS
330
5B0
102
}
330
1F
100
AcDbEntity
  8
LC-002-002-----0
 62
     7
370
    50
100
AcDbLine
 10
959.666279
 20
2437.296484
 30
0.0
 11
1030.834112
 21
2437.296484
 31
0.0
  0
LINE
  5
1FF
102
{ACAD_REACTORS
330
5B0
102
}
330
1F
100
AcDbEntity
  8
LC-002-002-----0
 62
     7
370
    25
100
AcDbLine
 10
1037.381692
 20
2451.198349
 30
0.0
 11
1030.834112
 21
2437.296484
 31
0.0
  0
LINE
  5
200
102
{ACAD_REACTORS
330
5B0
102
}
330
1F
100
AcDbEntity
  8
LC-002-002-----0
 62
     7
370
    25
100
AcDbLine
 10
1034.336306
 20
2465.296484
 30
0.0
 11
1037.381692
 21
2451.198349
 31
0.0
  0
INSERT
  5
20D
102
{ACAD_REACTORS
330
5B0
102
}
330
1F
100
AcDbEntity
  8
LC-006-005-----0
 62
     7
370
    25
100
AcDbBlockReference
  2
*X12
 10
0.0
 20
0.0
 30
0.0
  0
LINE
  5
20E
102
{ACAD_REACTORS
330
5B3
102
}
330
1F
100
AcDbEntity
  8
LC-005-006-MLN-0
 62
     7
370
    25
100
AcDbLine
 10
735.286848
 20
2256.296484
 30
0.0
 11
735.286848
 21
2207.653803
 31
0.0
  0
LINE
  5
20F
102
{ACAD_REACTORS
330
5B3
102
}
330
1F
100
AcDbEntity
  8
LC-002-002-----0
 62
     7
370
    25
100
AcDbLine
 10
680.286848
 20
2253.296484
 30
0.0
 11
790.286848
 21
2253.296484
 31
0.0
  0
LINE
  5
210
102
{ACAD_REACTORS
330
5B3
102
}
330
1F
100
AcDbEntity
  8
LC-002-002-----0
 62
     7
370
    25
100
AcDbLine
 10
790.286848
 20
2249.296484
 30
0.0
 11
790.286848
 21
2253.296484
 31
0.0
  0
LINE
  5
211
102
{ACAD_REACTORS
330
5B3
102
}
330
1F
100
AcDbEntity
  8
LC-002-002-----0
 62
     7
370
    25
100
AcDbLine
 10
772.786848
 20
2210.653803
 30
0.0
 11
697.786848
 21
2210.653803
 31
0.0
  0
LINE
  5
212
102
{ACAD_REACTORS
330
5B3
102
}
330
1F
100
AcDbEntity
  8
LC-002-002-----0
 62
     7
370
    25
100
AcDbLine
 10
774.791812
 20
2213.153803
 30
0.0
 11
772.786848
 21
2213.153803
 31
0.0
  0
LINE
  5
213
102
{ACAD_REACTORS
330
5B3
102
}
330
1F
100
AcDbEntity
  8
LC-002-002-----0
 62
     7
370
    25
100
AcDbLine
 10
790.286848
 20
2249.296484
 30
0.0
 11
680.286848
 21
2249.296484
 31
0.0
  0
LINE
  5
214
102
{ACAD_REACTORS
330
5B3
102
}
330
1F
100
AcDbEntity
  8
LC-002-002-----0
 62
     7
370
    25
100
AcDbLine
 10
697.786848
 20
2213.153803
 30
0.0
 11
697.786848
 21
2210.653803
 31
0.0
  0
LINE
  5
215
102
{ACAD_REACTORS
330
5B3
102
}
330
1F
100
AcDbEntity
  8
LC-002-002-----0
 62
     7
370
    25
100
AcDbLine
 10
778.036238
 20
2217.483578
 30
0.0
 11
779.786213
 21
2218.493926
 31
0.0
  0
LINE
  5
216
102
{ACAD_REACTORS
330
5B3
102
}
330
1F
100
AcDbEntity
  8
LC-002-002-----0
 62
     7
370
    25
100
AcDbLine
 10
772.786848
 20
2213.153803
 30
0.0
 11
772.786848
 21
2210.653803
 31
0.0
  0
LINE
  5
217
102
{ACAD_REACTORS
330
5B3
102
}
330
1F
100
AcDbEntity
  8
LC-002-002-----0
 62
     7
370
    25
100
AcDbLine
 10
782.786848
 20
2223.690446
 30
0.0
 11
782.786848
 21
2239.153803
 31
0.0
  0
LINE
  5
218
102
{ACAD_REACTORS
330
5B3
102
}
330
1F
100
AcDbEntity
  8
LC-002-002-----0
 62
     7
370
    25
100
AcDbLine
 10
790.286848
 20
2248.836261
 30
0.0
 11
790.286848
 21
2249.296484
 31
0.0
  0
ARC
  5
219
102
{ACAD_REACTORS
330
5B3
102
}
330
1F
100
AcDbEntity
  8
LC-002-002-----0
 62
     7
370
    25
100
AcDbCircle
 10
786.786848
 20
2239.153803
 30
0.0
 40
3.999999999999372
100
AcDbArc
 50
104.492147
 51
180.0
  0
ARC
  5
21A
102
{ACAD_REACTORS
330
5B3
102
}
330
1F
100
AcDbEntity
  8
LC-002-002-----0
 62
     7
370
    25
100
AcDbCircle
 10
784.286848
 20
2248.836261
 30
0.0
 40
6.000000000000098
100
AcDbArc
 50
284.469452
 51
0.0
  0
ARC
  5
21B
102
{ACAD_REACTORS
330
5B3
102
}
330
1F
100
AcDbEntity
  8
LC-002-002-----0
 62
     7
370
    25
100
AcDbCircle
 10
776.786848
 20
2223.690446
 30
0.0
 40
5.999999999999977
100
AcDbArc
 50
299.988476
 51
0.0
  0
ARC
  5
21C
102
{ACAD_REACTORS
330
5B3
102
}
330
1F
100
AcDbEntity
  8
LC-002-002-----0
 62
     7
370
    25
100
AcDbCircle
 10
780.536848
 20
2213.153803
 30
0.0
 40
4.999999999999906
100
AcDbArc
 50
120.016153
 51
172.072225
  0
ARC
  5
21D
102
{ACAD_REACTORS
330
5B3
102
}
330
1F
100
AcDbEntity
  8
LC-002-002-----0
 62
     7
370
    25
100
AcDbCircle
 10
774.792286
 20
2213.953803
 30
0.0
 40
0.7999999999997272
100
AcDbArc
 50
270.0
 51
352.062606
  0
LINE
  5
21E
102
{ACAD_REACTORS
330
5B3
102
}
330
1F
100
AcDbEntity
  8
LC-002-002-----0
 62
     7
370
    25
100
AcDbLine
 10
680.286848
 20
2249.296484
 30
0.0
 11
680.286848
 21
2253.296484
 31
0.0
  0
ARC
  5
21F
102
{ACAD_REACTORS
330
5B3
102
}
330
1F
100
AcDbEntity
  8
LC-002-002-----0
 62
     7
370
    25
100
AcDbCircle
 10
735.286848
 20
2178.694256
 30
0.0
 40
22.0
100
AcDbArc
 50
180.0
 51
0.0
  0
LINE
  5
220
102
{ACAD_REACTORS
330
5B3
102
}
330
1F
100
AcDbEntity
  8
LC-002-002-----0
 62
     7
370
    25
100
AcDbLine
 10
713.286848
 20
2178.694256
 30
0.0
 11
713.286848
 21
2192.385441
 31
0.0
  0
LINE
  5
221
102
{ACAD_REACTORS
330
5B3
102
}
330
1F
100
AcDbEntity
  8
LC-002-002-----0
 62
     7
370
    25
100
AcDbLine
 10
757.286848
 20
2178.694256
 30
0.0
 11
757.286848
 21
2192.385441
 31
0.0
  0
LINE
  5
222
102
{ACAD_REACTORS
330
5B3
102
}
330
1F
100
AcDbEntity
  8
LC-002-002-----0
 62
     7
370
    25
100
AcDbLine
 10
763.575787
 20
2200.195423
 30
0.0
 11
764.054233
 21
2202.814286
 31
0.0
  0
ARC
  5
223
102
{ACAD_REACTORS
330
5B3
102
}
330
1F
100
AcDbEntity
  8
LC-002-002-----0
 62
     7
370
    25
100
AcDbCircle
 10
757.181623
 20
2201.363613
 30
0.0
 40
6.500000000000005
100
AcDbArc
 50
289.07704
 51
349.645823
  0
ARC
  5
224
102
{ACAD_REACTORS
330
5B3
102
}
330
1F
100
AcDbEntity
  8
LC-002-002-----0
 62
     7
370
    25
100
AcDbCircle
 10
760.286848
 20
2192.385441
 30
0.0
 40
2.999999999999865
100
AcDbArc
 50
109.055448
 51
180.0
  0
ARC
  5
225
102
{ACAD_REACTORS
330
5B3
102
}
330
1F
100
AcDbEntity
  8
LC-002-002-----0
 62
     7
370
    25
100
AcDbCircle
 10
768.784986
 20
2209.950559
 30
0.0
 40
2.000000000000175
100
AcDbArc
 50
334.152631
 51
0.0
  0
ARC
  5
226
102
{ACAD_REACTORS
330
5B3
102
}
330
1F
100
AcDbEntity
  8
LC-002-002-----0
 62
     7
370
    25
100
AcDbCircle
 10
765.185052
 20
2211.694256
 30
0.0
 40
6.00000000000041
100
AcDbArc
 50
286.283517
 51
334.155028
  0
ARC
  5
227
102
{ACAD_REACTORS
330
5B3
102
}
330
1F
100
AcDbEntity
  8
LC-002-002-----0
 62
     7
370
    25
100
AcDbCircle
 10
767.989111
 20
2202.095441
 30
0.0
 40
3.999999999999933
100
AcDbArc
 50
106.281751
 51
169.647048
  0
LINE
  5
228
102
{ACAD_REACTORS
330
5B3
102
}
330
1F
100
AcDbEntity
  8
LC-002-002-----0
 62
     7
370
    25
100
AcDbLine
 10
706.997909
 20
2200.195423
 30
0.0
 11
706.519463
 21
2202.814286
 31
0.0
  0
ARC
  5
229
102
{ACAD_REACTORS
330
5B3
102
}
330
1F
100
AcDbEntity
  8
LC-002-002-----0
 62
     7
370
    25
100
AcDbCircle
 10
713.392073
 20
2201.363613
 30
0.0
 40
6.499999999999973
100
AcDbArc
 50
190.354177
 51
250.92296
  0
ARC
  5
22A
102
{ACAD_REACTORS
330
5B3
102
}
330
1F
100
AcDbEntity
  8
LC-002-002-----0
 62
     7
370
    25
100
AcDbCircle
 10
710.286848
 20
2192.385441
 30
0.0
 40
2.999999995699682
100
AcDbArc
 50
0.0
 51
70.944552
  0
ARC
  5
22B
102
{ACAD_REACTORS
330
5B3
102
}
330
1F
100
AcDbEntity
  8
LC-002-002-----0
 62
     7
370
    25
100
AcDbCircle
 10
701.788711
 20
2209.950559
 30
0.0
 40
1.999999999999773
100
AcDbArc
 50
180.0
 51
205.847369
  0
ARC
  5
22C
102
{ACAD_REACTORS
330
5B3
102
}
330
1F
100
AcDbEntity
  8
LC-002-002-----0
 62
     7
370
    25
100
AcDbCircle
 10
705.388644
 20
2211.694256
 30
0.0
 40
6.000000000000001
100
AcDbArc
 50
205.844972
 51
253.716483
  0
ARC
  5
22D
102
{ACAD_REACTORS
330
5B3
102
}
330
1F
100
AcDbEntity
  8
LC-002-002-----0
 62
     7
370
    25
100
AcDbCircle
 10
702.584585
 20
2202.095441
 30
0.0
 40
4.00000000000002
100
AcDbArc
 50
10.352952
 51
73.718249
  0
ARC
  5
22E
102
{ACAD_REACTORS
330
5B3
102
}
330
1F
100
AcDbEntity
  8
LC-002-002-----0
 62
     7
370
    25
100
AcDbCircle
 10
735.286848
 20
2178.694256
 30
0.0
 40
27.70479324130008
100
AcDbArc
 50
145.394244
 51
34.605756
  0
LINE
  5
22F
102
{ACAD_REACTORS
330
5B3
102
}
330
1F
100
AcDbEntity
  8
LC-002-002-----0
 62
     7
370
    25
100
AcDbLine
 10
692.537458
 20
2217.483578
 30
0.0
 11
690.787483
 21
2218.493926
 31
0.0
  0
LINE
  5
230
102
{ACAD_REACTORS
330
5B3
102
}
330
1F
100
AcDbEntity
  8
LC-002-002-----0
 62
     7
370
    25
100
AcDbLine
 10
687.786848
 20
2223.690446
 30
0.0
 11
687.786848
 21
2239.153803
 31
0.0
  0
LINE
  5
231
102
{ACAD_REACTORS
330
5B3
102
}
330
1F
100
AcDbEntity
  8
LC-002-002-----0
 62
     7
370
    25
100
AcDbLine
 10
680.286848
 20
2248.836261
 30
0.0
 11
680.286848
 21
2249.296484
 31
0.0
  0
ARC
  5
232
102
{ACAD_REACTORS
330
5B3
102
}
330
1F
100
AcDbEntity
  8
LC-002-002-----0
 62
     7
370
    25
100
AcDbCircle
 10
683.786848
 20
2239.153803
 30
0.0
 40
3.999999999999773
100
AcDbArc
 50
0.0
 51
75.507853
  0
ARC
  5
233
102
{ACAD_REACTORS
330
5B3
102
}
330
1F
100
AcDbEntity
  8
LC-002-002-----0
 62
     7
370
    25
100
AcDbCircle
 10
686.286848
 20
2248.836261
 30
0.0
 40
6.000000000000114
100
AcDbArc
 50
180.0
 51
255.530548
  0
ARC
  5
234
102
{ACAD_REACTORS
330
5B3
102
}
330
1F
100
AcDbEntity
  8
LC-002-002-----0
 62
     7
370
    25
100
AcDbCircle
 10
693.786848
 20
2223.690446
 30
0.0
 40
6.0
100
AcDbArc
 50
180.0
 51
240.011524
  0
ARC
  5
235
102
{ACAD_REACTORS
330
5B3
102
}
330
1F
100
AcDbEntity
  8
LC-002-002-----0
 62
     7
370
    25
100
AcDbCircle
 10
690.036848
 20
2213.153803
 30
0.0
 40
4.999999999999906
100
AcDbArc
 50
7.927775
 51
59.983847
  0
ARC
  5
236
102
{ACAD_REACTORS
330
5B3
102
}
330
1F
100
AcDbEntity
  8
LC-002-002-----0
 62
     7
370
    25
100
AcDbCircle
 10
695.781411
 20
2213.953803
 30
0.0
 40
0.8000000000000567
100
AcDbArc
 50
187.937394
 51
270.0
  0
LINE
  5
237
102
{ACAD_REACTORS
330
5B3
102
}
330
1F
100
AcDbEntity
  8
LC-002-002-----0
 62
     7
370
    25
100
AcDbLine
 10
697.786848
 20
2213.153803
 30
0.0
 11
695.781885
 21
2213.153803
 31
0.0
  0
LINE
  5
238
102
{ACAD_REACTORS
330
5AB
102
}
330
1F
100
AcDbEntity
  8
LC-002-002-----0
 62
     7
370
    25
100
AcDbLine
 10
1718.651543
 20
1943.421956
 30
0.0
 11
1755.375751
 21
1947.931122
 31
0.0
  0
LINE
  5
239
102
{ACAD_REACTORS
330
5AA
102
}
330
1F
100
AcDbEntity
  8
LC-002-002-----0
 62
     7
370
    25
100
AcDbLine
 10
1549.467789
 20
1805.531863
 30
0.0
 11
1549.467789
 21
1876.528137
 31
0.0
  0
LINE
  5
23A
102
{ACAD_REACTORS
330
5AE
102
}
330
1F
100
AcDbEntity
  8
LC-002-002-----0
 62
     7
370
    25
100
AcDbLine
 10
1467.28921
 20
2015.358533
 30
0.0
 11
1467.881334
 21
2016.495994
 31
0.0
  0
LINE
  5
23B
102
{ACAD_REACTORS
330
5AE
102
}
330
1F
100
AcDbEntity
  8
LC-002-002-----0
 62
     7
370
    25
100
AcDbLine
 10
1469.59821
 20
2015.358533
 30
0.0
 11
1470.190334
 21
2016.495994
 31
0.0
  0
LINE
  5
23C
102
{ACAD_REACTORS
330
5AE
102
}
330
1F
100
AcDbEntity
  8
LC-002-002-----0
 62
     7
370
    25
100
AcDbLine
 10
1471.90721
 20
2015.358533
 30
0.0
 11
1472.499334
 21
2016.495994
 31
0.0
  0
LINE
  5
23D
102
{ACAD_REACTORS
330
5AE
102
}
330
1F
100
AcDbEntity
  8
LC-002-002-----0
 62
     7
370
    25
100
AcDbLine
 10
1474.21621
 20
2015.358533
 30
0.0
 11
1474.808334
 21
2016.495994
 31
0.0
  0
LINE
  5
23E
102
{ACAD_REACTORS
330
5AE
102
}
330
1F
100
AcDbEntity
  8
LC-002-002-----0
 62
     7
370
    25
100
AcDbLine
 10
1468.44415
 20
1969.080647
 30
0.0
 11
1469.036275
 21
1970.218107
 31
0.0
  0
LINE
  5
23F
102
{ACAD_REACTORS
330
5AE
102
}
330
1F
100
AcDbEntity
  8
LC-002-002-----0
 62
     7
370
    25
100
AcDbLine
 10
1470.75315
 20
1969.080647
 30
0.0
 11
1471.345275
 21
1970.218107
 31
0.0
  0
LINE
  5
240
102
{ACAD_REACTORS
330
5AE
102
}
330
1F
100
AcDbEntity
  8
LC-002-002-----0
 62
     7
370
    25
100
AcDbLine
 10
1473.06215
 20
1969.080647
 30
0.0
 11
1473.654275
 21
1970.218107
 31
0.0
  0
LINE
  5
241
102
{ACAD_REACTORS
330
5AE
102
}
330
1F
100
AcDbEntity
  8
LC-002-002-----0
 62
     7
370
    25
100
AcDbLine
 10
1475.37115
 20
1969.080647
 30
0.0
 11
1475.963275
 21
1970.218107
 31
0.0
  0
LINE
  5
242
102
{ACAD_REACTORS
330
5AE
102
}
330
1F
100
AcDbEntity
  8
LC-002-002-----0
 62
     7
370
    25
100
AcDbLine
 10
1497.508242
 20
2015.18832
 30
0.0
 11
1476.244242
 21
2015.18832
 31
0.0
  0
LINE
  5
243
102
{ACAD_REACTORS
330
5AE
102
}
330
1F
100
AcDbEntity
  8
LC-002-002-----0
 62
     7
370
    25
100
AcDbLine
 10
1467.008242
 20
2015.18832
 30
0.0
 11
1466.508242
 21
2015.18832
 31
0.0
  0
LINE
  5
244
102
{ACAD_REACTORS
330
5AE
102
}
330
1F
100
AcDbEntity
  8
LC-002-002-----0
 62
     7
370
    25
100
AcDbLine
 10
1466.508242
 20
1970.38832
 30
0.0
 11
1466.508242
 21
2015.18832
 31
0.0
  0
LINE
  5
245
102
{ACAD_REACTORS
330
5AE
102
}
330
1F
100
AcDbEntity
  8
LC-002-002-----0
 62
     7
370
    25
100
AcDbLine
 10
1497.508242
 20
1970.410804
 30
0.0
 11
1493.508242
 21
1970.410804
 31
0.0
  0
LINE
  5
246
102
{ACAD_REACTORS
330
5AE
102
}
330
1F
100
AcDbEntity
  8
LC-002-002-----0
 62
     7
370
    25
100
AcDbLine
 10
1493.508242
 20
1970.38832
 30
0.0
 11
1476.244242
 21
1970.38832
 31
0.0
  0
LINE
  5
247
102
{ACAD_REACTORS
330
5AE
102
}
330
1F
100
AcDbEntity
  8
LC-002-002-----0
 62
     7
370
    25
100
AcDbLine
 10
1467.008242
 20
1970.38832
 30
0.0
 11
1466.508242
 21
1970.38832
 31
0.0
  0
LINE
  5
248
102
{ACAD_REACTORS
330
5A9
102
}
330
1F
100
AcDbEntity
  8
LC-002-002-----0
 62
     7
370
    25
100
AcDbLine
 10
1540.091797
 20
1891.873603
 30
0.0
 11
1539.908242
 21
1891.873603
 31
0.0
  0
LINE
  5
249
102
{ACAD_REACTORS
330
5A9
102
}
330
1F
100
AcDbEntity
  8
LC-002-002-----0
 62
     7
370
    25
100
AcDbLine
 10
1495.108242
 20
1867.53
 30
0.0
 11
1495.108242
 21
1891.873652
 31
0.0
  0
LINE
  5
24A
102
{ACAD_REACTORS
330
5A9
102
}
330
1F
100
AcDbEntity
  8
LC-002-002-----0
 62
     7
370
    25
100
AcDbLine
 10
1495.508242
 20
1841.03
 30
0.0
 11
1495.508242
 21
1867.13
 31
0.0
  0
LINE
  5
24B
102
{ACAD_REACTORS
330
5AE
102
}
330
1F
100
AcDbEntity
  8
LC-002-002-----0
 62
     7
370
    25
100
AcDbLine
 10
1497.533883
 20
1966.38832
 30
0.0
 11
1497.533883
 21
1970.435693
 31
0.0
  0
ARC
  5
24C
102
{ACAD_REACTORS
330
5A9
102
}
330
1F
100
AcDbEntity
  8
LC-004-002-RND-0
 62
     7
370
    25
100
AcDbCircle
 10
1517.508242
 20
1841.03
 30
0.0
 40
22.0
100
AcDbArc
 50
180.0
 51
270.0
  0
LINE
  5
24D
102
{ACAD_REACTORS
330
5AE
102
}
330
1F
100
AcDbEntity
  8
LC-002-002-----0
 62
     7
370
    25
100
AcDbLine
 10
1537.508242
 20
1915.03
 30
0.0
 11
1537.508242
 21
1974.78932
 31
0.0
  0
LINE
  5
24E
102
{ACAD_REACTORS
330
5A9
102
}
330
1F
100
AcDbEntity
  8
LC-002-002-----0
 62
     7
370
    25
100
AcDbLine
 10
1539.908242
 20
1869.483149
 30
0.0
 11
1539.908242
 21
1891.873652
 31
0.0
  0
LINE
  5
24F
102
{ACAD_REACTORS
330
5AE
102
}
330
1F
100
AcDbEntity
  8
LC-002-002-----0
 62
     7
370
    25
100
AcDbLine
 10
1499.91037
 20
2012.786192
 30
0.0
 11
1497.508503
 21
2015.18806
 31
0.0
  0
LINE
  5
250
102
{ACAD_REACTORS
330
5A9
102
}
330
1F
100
AcDbEntity
  8
LC-002-002-----0
 62
     7
370
    25
100
AcDbLine
 10
1493.056752
 20
1894.471781
 30
0.0
 11
1494.556747
 21
1895.337803
 31
0.0
  0
LINE
  5
251
102
{ACAD_REACTORS
330
5A9
102
}
330
1F
100
AcDbEntity
  8
LC-002-002-----0
 62
     7
370
    25
100
AcDbLine
 10
1493.056752
 20
1892.73973
 30
0.0
 11
1494.556747
 21
1893.605752
 31
0.0
  0
LINE
  5
252
102
{ACAD_REACTORS
330
5A9
102
}
330
1F
100
AcDbEntity
  8
LC-002-002-----0
 62
     7
370
    25
100
AcDbLine
 10
1540.091797
 20
1895.337705
 30
0.0
 11
1541.290887
 21
1896.03
 31
0.0
  0
LINE
  5
253
102
{ACAD_REACTORS
330
5A9
102
}
330
1F
100
AcDbEntity
  8
LC-002-002-----0
 62
     7
370
    25
100
AcDbLine
 10
1540.091797
 20
1893.605654
 30
0.0
 11
1541.591791
 21
1894.471676
 31
0.0
  0
LINE
  5
254
102
{ACAD_REACTORS
330
5A9
102
}
330
1F
100
AcDbEntity
  8
LC-002-002-----0
 62
     7
370
    25
100
AcDbLine
 10
1540.091797
 20
1891.873603
 30
0.0
 11
1541.591791
 21
1892.739625
 31
0.0
  0
LINE
  5
255
102
{ACAD_REACTORS
330
5AE
102
}
330
1F
100
AcDbEntity
  8
LC-002-002-----0
 62
     7
370
    25
100
AcDbLine
 10
1475.37115
 20
2016.495994
 30
0.0
 11
1475.963275
 21
2015.358533
 31
0.0
  0
LINE
  5
256
102
{ACAD_REACTORS
330
5AE
102
}
330
1F
100
AcDbEntity
  8
LC-002-002-----0
 62
     7
370
    25
100
AcDbLine
 10
1473.06215
 20
2016.495994
 30
0.0
 11
1473.654275
 21
2015.358533
 31
0.0
  0
LINE
  5
257
102
{ACAD_REACTORS
330
5AE
102
}
330
1F
100
AcDbEntity
  8
LC-002-002-----0
 62
     7
370
    25
100
AcDbLine
 10
1470.75315
 20
2016.495994
 30
0.0
 11
1471.345275
 21
2015.358533
 31
0.0
  0
LINE
  5
258
102
{ACAD_REACTORS
330
5AE
102
}
330
1F
100
AcDbEntity
  8
LC-002-002-----0
 62
     7
370
    25
100
AcDbLine
 10
1468.44415
 20
2016.495994
 30
0.0
 11
1469.036275
 21
2015.358533
 31
0.0
  0
LINE
  5
259
102
{ACAD_REACTORS
330
5AE
102
}
330
1F
100
AcDbEntity
  8
LC-002-002-----0
 62
     7
370
    25
100
AcDbLine
 10
1474.21621
 20
1970.218107
 30
0.0
 11
1474.808334
 21
1969.080647
 31
0.0
  0
LINE
  5
25A
102
{ACAD_REACTORS
330
5AE
102
}
330
1F
100
AcDbEntity
  8
LC-002-002-----0
 62
     7
370
    25
100
AcDbLine
 10
1471.90721
 20
1970.218107
 30
0.0
 11
1472.499334
 21
1969.080647
 31
0.0
  0
LINE
  5
25B
102
{ACAD_REACTORS
330
5AE
102
}
330
1F
100
AcDbEntity
  8
LC-002-002-----0
 62
     7
370
    25
100
AcDbLine
 10
1469.59821
 20
1970.218107
 30
0.0
 11
1470.190334
 21
1969.080647
 31
0.0
  0
LINE
  5
25C
102
{ACAD_REACTORS
330
5AE
102
}
330
1F
100
AcDbEntity
  8
LC-002-002-----0
 62
     7
370
    25
100
AcDbLine
 10
1467.28921
 20
1970.218107
 30
0.0
 11
1467.881334
 21
1969.080647
 31
0.0
  0
LINE
  5
25D
102
{ACAD_REACTORS
330
5A9
102
}
330
1F
100
AcDbEntity
  8
LC-002-002-----0
 62
     7
370
    25
100
AcDbLine
 10
1539.908242
 20
1869.483149
 30
0.0
 11
1541.628273
 21
1869.797385
 31
0.0
  0
LINE
  5
25E
102
{ACAD_REACTORS
330
5A9
102
}
330
1F
100
AcDbEntity
  8
LC-002-002-----0
 62
     7
370
    25
100
AcDbLine
 10
1548.764545
 20
1876.528137
 30
0.0
 11
1549.467789
 21
1876.528137
 31
0.0
  0
LINE
  5
25F
102
{ACAD_REACTORS
330
5A9
102
}
330
1F
100
AcDbEntity
  8
LC-002-002-----0
 62
     7
370
    25
100
AcDbLine
 10
1541.591791
 20
1894.471781
 30
0.0
 11
1540.091797
 21
1895.337803
 31
0.0
  0
LINE
  5
260
102
{ACAD_REACTORS
330
5A9
102
}
330
1F
100
AcDbEntity
  8
LC-002-002-----0
 62
     7
370
    25
100
AcDbLine
 10
1541.591791
 20
1892.73973
 30
0.0
 11
1540.091797
 21
1893.605752
 31
0.0
  0
LINE
  5
261
102
{ACAD_REACTORS
330
5A9
102
}
330
1F
100
AcDbEntity
  8
LC-002-002-----0
 62
     7
370
    25
100
AcDbLine
 10
1494.556747
 20
1895.337705
 30
0.0
 11
1493.357656
 21
1896.03
 31
0.0
  0
LINE
  5
262
102
{ACAD_REACTORS
330
5A9
102
}
330
1F
100
AcDbEntity
  8
LC-002-002-----0
 62
     7
370
    25
100
AcDbLine
 10
1494.556747
 20
1893.605654
 30
0.0
 11
1493.056752
 21
1894.471676
 31
0.0
  0
LINE
  5
263
102
{ACAD_REACTORS
330
5A9
102
}
330
1F
100
AcDbEntity
  8
LC-002-002-----0
 62
     7
370
    25
100
AcDbLine
 10
1494.556747
 20
1891.873603
 30
0.0
 11
1493.056752
 21
1892.739625
 31
0.0
  0
LINE
  5
264
102
{ACAD_REACTORS
330
5A9
102
}
330
1F
100
AcDbEntity
  8
LC-002-002-----0
 62
     7
370
    25
100
AcDbLine
 10
1517.508242
 20
1819.03
 30
0.0
 11
1531.199427
 21
1819.03
 31
0.0
  0
LINE
  5
265
102
{ACAD_REACTORS
330
5A9
102
}
330
1F
100
AcDbEntity
  8
LC-002-002-----0
 62
     7
370
    25
100
AcDbLine
 10
1548.764545
 20
1805.531863
 30
0.0
 11
1549.467789
 21
1805.531863
 31
0.0
  0
LINE
  5
266
102
{ACAD_REACTORS
330
5A9
102
}
330
1F
100
AcDbEntity
  8
LC-002-002-----0
 62
     7
370
    25
100
AcDbLine
 10
1539.009409
 20
1812.741061
 30
0.0
 11
1541.628273
 21
1812.262615
 31
0.0
  0
LINE
  5
267
102
{ACAD_REACTORS
330
5A9
102
}
330
1F
100
AcDbEntity
  8
LC-002-002-----0
 62
     7
370
    25
100
AcDbLine
 10
1495.10827
 20
1867.529973
 30
0.0
 11
1495.50835
 21
1867.129892
 31
0.0
  0
ARC
  5
268
102
{ACAD_REACTORS
330
5AE
102
}
330
1F
100
AcDbEntity
  8
LC-002-002-----0
 62
     7
370
    25
100
AcDbCircle
 10
1476.244242
 20
1970.07132
 30
0.0
 40
0.3170000000000073
100
AcDbArc
 50
90.0
 51
152.36046
  0
ARC
  5
269
102
{ACAD_REACTORS
330
5AE
102
}
330
1F
100
AcDbEntity
  8
LC-002-002-----0
 62
     7
370
    25
100
AcDbCircle
 10
1476.244242
 20
2015.50532
 30
0.0
 40
0.3170000000000512
100
AcDbArc
 50
207.567177
 51
270.0
  0
ARC
  5
26A
102
{ACAD_REACTORS
330
5AE
102
}
330
1F
100
AcDbEntity
  8
LC-002-002-----0
 62
     7
370
    25
100
AcDbCircle
 10
1475.089742
 20
1969.226588
 30
0.0
 40
0.3170000000002538
100
AcDbArc
 50
207.317979
 51
332.682021
  0
ARC
  5
26B
102
{ACAD_REACTORS
330
5AE
102
}
330
1F
100
AcDbEntity
  8
LC-002-002-----0
 62
     7
370
    25
100
AcDbCircle
 10
1475.089742
 20
2016.350053
 30
0.0
 40
0.3169999999998988
100
AcDbArc
 50
27.394588
 51
152.605412
  0
ARC
  5
26C
102
{ACAD_REACTORS
330
5AE
102
}
330
1F
100
AcDbEntity
  8
LC-002-002-----0
 62
     7
370
    25
100
AcDbCircle
 10
1473.935242
 20
2015.50532
 30
0.0
 40
0.3169999999996481
100
AcDbArc
 50
207.567177
 51
332.432823
  0
ARC
  5
26D
102
{ACAD_REACTORS
330
5AE
102
}
330
1F
100
AcDbEntity
  8
LC-002-002-----0
 62
     7
370
    25
100
AcDbCircle
 10
1473.935242
 20
1970.07132
 30
0.0
 40
0.3169999999998827
100
AcDbArc
 50
27.63954
 51
152.36046
  0
ARC
  5
26E
102
{ACAD_REACTORS
330
5AE
102
}
330
1F
100
AcDbEntity
  8
LC-002-002-----0
 62
     7
370
    25
100
AcDbCircle
 10
1472.780742
 20
1969.226588
 30
0.0
 40
0.3170000000000585
100
AcDbArc
 50
207.317979
 51
332.682021
  0
ARC
  5
26F
102
{ACAD_REACTORS
330
5AE
102
}
330
1F
100
AcDbEntity
  8
LC-002-002-----0
 62
     7
370
    25
100
AcDbCircle
 10
1472.780742
 20
2016.350053
 30
0.0
 40
0.3170000000002878
100
AcDbArc
 50
27.394588
 51
152.605412
  0
ARC
  5
270
102
{ACAD_REACTORS
330
5AE
102
}
330
1F
100
AcDbEntity
  8
LC-002-002-----0
 62
     7
370
    25
100
AcDbCircle
 10
1471.626242
 20
2015.50532
 30
0.0
 40
0.3170000000000334
100
AcDbArc
 50
207.567177
 51
332.432823
  0
ARC
  5
271
102
{ACAD_REACTORS
330
5AE
102
}
330
1F
100
AcDbEntity
  8
LC-002-002-----0
 62
     7
370
    25
100
AcDbCircle
 10
1471.626242
 20
1970.07132
 30
0.0
 40
0.3169999999998827
100
AcDbArc
 50
27.63954
 51
152.36046
  0
ARC
  5
272
102
{ACAD_REACTORS
330
5AE
102
}
330
1F
100
AcDbEntity
  8
LC-002-002-----0
 62
     7
370
    25
100
AcDbCircle
 10
1470.471742
 20
1969.226588
 30
0.0
 40
0.3170000000000585
100
AcDbArc
 50
207.317979
 51
332.682021
  0
ARC
  5
273
102
{ACAD_REACTORS
330
5AE
102
}
330
1F
100
AcDbEntity
  8
LC-002-002-----0
 62
     7
370
    25
100
AcDbCircle
 10
1470.471742
 20
2016.350053
 30
0.0
 40
0.3169999999998988
100
AcDbArc
 50
27.394588
 51
152.605412
  0
ARC
  5
274
102
{ACAD_REACTORS
330
5AE
102
}
330
1F
100
AcDbEntity
  8
LC-002-002-----0
 62
     7
370
    25
100
AcDbCircle
 10
1469.317242
 20
2015.50532
 30
0.0
 40
0.3170000000000334
100
AcDbArc
 50
207.567177
 51
332.432823
  0
ARC
  5
275
102
{ACAD_REACTORS
330
5AE
102
}
330
1F
100
AcDbEntity
  8
LC-002-002-----0
 62
     7
370
    25
100
AcDbCircle
 10
1469.317242
 20
1970.07132
 30
0.0
 40
0.3169999999998827
100
AcDbArc
 50
27.63954
 51
152.36046
  0
ARC
  5
276
102
{ACAD_REACTORS
330
5AE
102
}
330
1F
100
AcDbEntity
  8
LC-002-002-----0
 62
     7
370
    25
100
AcDbCircle
 10
1468.162742
 20
1969.226588
 30
0.0
 40
0.3169999999998498
100
AcDbArc
 50
207.317979
 51
332.682021
  0
ARC
  5
277
102
{ACAD_REACTORS
330
5AE
102
}
330
1F
100
AcDbEntity
  8
LC-002-002-----0
 62
     7
370
    25
100
AcDbCircle
 10
1468.162742
 20
2016.350053
 30
0.0
 40
0.3169999999998988
100
AcDbArc
 50
27.394588
 51
152.605412
  0
ARC
  5
278
102
{ACAD_REACTORS
330
5AE
102
}
330
1F
100
AcDbEntity
  8
LC-002-002-----0
 62
     7
370
    25
100
AcDbCircle
 10
1467.008242
 20
1970.07132
 30
0.0
 40
0.3169999999996908
100
AcDbArc
 50
27.63954
 51
90.0
  0
ARC
  5
279
102
{ACAD_REACTORS
330
5AE
102
}
330
1F
100
AcDbEntity
  8
LC-002-002-----0
 62
     7
370
    25
100
AcDbCircle
 10
1467.008242
 20
2015.50532
 30
0.0
 40
0.3170000000000073
100
AcDbArc
 50
270.0
 51
332.432823
  0
ARC
  5
27A
102
{ACAD_REACTORS
330
5AE
102
}
330
1F
100
AcDbEntity
  8
LC-002-002-----0
 62
     7
370
    25
100
AcDbCircle
 10
1499.508242
 20
1974.78832
 30
0.0
 40
37.99999999999973
100
AcDbArc
 50
0.000006
 51
89.393653
  0
ARC
  5
27B
102
{ACAD_REACTORS
330
5A9
102
}
330
1F
100
AcDbEntity
  8
LC-002-002-----0
 62
     7
370
    25
100
AcDbCircle
 10
1540.177599
 20
1819.135225
 30
0.0
 40
6.500000000000005
100
AcDbArc
 50
199.07704
 51
259.645823
  0
ARC
  5
27C
102
{ACAD_REACTORS
330
5A9
102
}
330
1F
100
AcDbEntity
  8
LC-002-002-----0
 62
     7
370
    25
100
AcDbCircle
 10
1531.199427
 20
1816.03
 30
0.0
 40
2.999999999999865
100
AcDbArc
 50
19.055448
 51
90.0
  0
ARC
  5
27D
102
{ACAD_REACTORS
330
5A9
102
}
330
1F
100
AcDbEntity
  8
LC-002-002-----0
 62
     7
370
    25
100
AcDbCircle
 10
1548.764545
 20
1807.531863
 30
0.0
 40
1.999999999999977
100
AcDbArc
 50
244.152631
 51
270.0
  0
ARC
  5
27E
102
{ACAD_REACTORS
330
5A9
102
}
330
1F
100
AcDbEntity
  8
LC-002-002-----0
 62
     7
370
    25
100
AcDbCircle
 10
1548.764545
 20
1874.528137
 30
0.0
 40
2.0
100
AcDbArc
 50
90.0
 51
115.847369
  0
ARC
  5
27F
102
{ACAD_REACTORS
330
5A9
102
}
330
1F
100
AcDbEntity
  8
LC-002-002-----0
 62
     7
370
    25
100
AcDbCircle
 10
1550.508242
 20
1811.131796
 30
0.0
 40
5.999999999999973
100
AcDbArc
 50
196.283517
 51
244.155028
  0
ARC
  5
280
102
{ACAD_REACTORS
330
5A9
102
}
330
1F
100
AcDbEntity
  8
LC-002-002-----0
 62
     7
370
    25
100
AcDbCircle
 10
1550.508242
 20
1870.928204
 30
0.0
 40
5.999999999999802
100
AcDbArc
 50
115.844972
 51
163.716483
  0
ARC
  5
281
102
{ACAD_REACTORS
330
5A9
102
}
330
1F
100
AcDbEntity
  8
LC-002-002-----0
 62
     7
370
    25
100
AcDbCircle
 10
1540.909427
 20
1808.327737
 30
0.0
 40
3.999999999999933
100
AcDbArc
 50
16.281751
 51
79.647048
  0
ARC
  5
282
102
{ACAD_REACTORS
330
5A9
102
}
330
1F
100
AcDbEntity
  8
LC-002-002-----0
 62
     7
370
    25
100
AcDbCircle
 10
1540.909427
 20
1873.732263
 30
0.0
 40
3.999999999999939
100
AcDbArc
 50
280.352952
 51
343.718249
  0
INSERT
  5
287
102
{ACAD_REACTORS
330
5AE
102
}
330
1F
100
AcDbEntity
  8
LC-002-002-----0
 62
     7
370
    25
100
AcDbBlockReference
  2
POLY1
 10
0.0
 20
0.0
 30
0.0
  0
LINE
  5
288
102
{ACAD_REACTORS
330
5AE
102
}
330
1F
100
AcDbEntity
  8
LC-002-002-----0
 62
     7
370
    25
100
AcDbLine
 10
1497.508242
 20
1966.38832
 30
0.0
 11
1497.508242
 21
1915.03
 31
0.0
  0
LINE
  5
289
102
{ACAD_REACTORS
330
5A9
102
}
330
1F
100
AcDbEntity
  8
LC-002-002-----0
 62
     7
370
    25
100
AcDbLine
 10
1489.803449
 20
1898.53
 30
0.0
 11
1489.803449
 21
1896.03
 31
0.0
  0
LINE
  5
28A
102
{ACAD_REACTORS
330
5A9
102
}
330
1F
100
AcDbEntity
  8
LC-002-002-----0
 62
     7
370
    25
100
AcDbLine
 10
1490.553449
 20
1899.53
 30
0.0
 11
1490.553449
 21
1899.28
 31
0.0
  0
LINE
  5
28B
102
{ACAD_REACTORS
330
5A9
102
}
330
1F
100
AcDbEntity
  8
LC-002-002-----0
 62
     7
370
    25
100
AcDbLine
 10
1491.708242
 20
1899.53
 30
0.0
 11
1491.708242
 21
1913.03
 31
0.0
  0
LINE
  5
28C
102
{ACAD_REACTORS
330
5A9
102
}
330
1F
100
AcDbEntity
  8
LC-002-002-----0
 62
     7
370
    25
100
AcDbLine
 10
1543.308242
 20
1899.53
 30
0.0
 11
1543.308242
 21
1913.03
 31
0.0
  0
LINE
  5
28D
102
{ACAD_REACTORS
330
5A9
102
}
330
1F
100
AcDbEntity
  8
LC-002-002-----0
 62
     7
370
    25
100
AcDbLine
 10
1544.463036
 20
1899.53
 30
0.0
 11
1544.463036
 21
1899.28
 31
0.0
  0
LINE
  5
28E
102
{ACAD_REACTORS
330
5A9
102
}
330
1F
100
AcDbEntity
  8
LC-002-002-----0
 62
     7
370
    25
100
AcDbLine
 10
1545.213036
 20
1898.53
 30
0.0
 11
1545.213036
 21
1896.03
 31
0.0
  0
LINE
  5
28F
102
{ACAD_REACTORS
330
5A9
102
}
330
1F
100
AcDbEntity
  8
LC-002-002-----0
 62
     7
370
    25
100
AcDbLine
 10
1490.55345
 20
1899.280001
 30
0.0
 11
1489.80345
 21
1898.530001
 31
0.0
  0
LINE
  5
290
102
{ACAD_REACTORS
330
5A9
102
}
330
1F
100
AcDbEntity
  8
LC-002-002-----0
 62
     7
370
    25
100
AcDbLine
 10
1541.308242
 20
1915.03
 30
0.0
 11
1493.708242
 21
1915.03
 31
0.0
  0
LINE
  5
291
102
{ACAD_REACTORS
330
5A9
102
}
330
1F
100
AcDbEntity
  8
LC-002-002-----0
 62
     7
370
    25
100
AcDbLine
 10
1544.463018
 20
1899.53
 30
0.0
 11
1490.553467
 21
1899.53
 31
0.0
  0
LINE
  5
292
102
{ACAD_REACTORS
330
5A9
102
}
330
1F
100
AcDbEntity
  8
LC-002-002-----0
 62
     7
370
    25
100
AcDbLine
 10
1545.213036
 20
1896.03
 30
0.0
 11
1489.803449
 21
1896.03
 31
0.0
  0
LINE
  5
293
102
{ACAD_REACTORS
330
5A9
102
}
330
1F
100
AcDbEntity
  8
LC-002-002-----0
 62
     7
370
    25
100
AcDbLine
 10
1544.463034
 20
1899.280001
 30
0.0
 11
1545.213034
 21
1898.530001
 31
0.0
  0
ARC
  5
294
102
{ACAD_REACTORS
330
5A9
102
}
330
1F
100
AcDbEntity
  8
LC-002-002-----0
 62
     7
370
    25
100
AcDbCircle
 10
1541.308242
 20
1913.03
 30
0.0
 40
2.0
100
AcDbArc
 50
0.0
 51
90.0
  0
ARC
  5
295
102
{ACAD_REACTORS
330
5A9
102
}
330
1F
100
AcDbEntity
  8
LC-002-002-----0
 62
     7
370
    25
100
AcDbCircle
 10
1493.708242
 20
1913.03
 30
0.0
 40
2.0
100
AcDbArc
 50
90.0
 51
180.0
  0
LINE
  5
296
102
{ACAD_REACTORS
330
5A9
102
}
330
1F
100
AcDbEntity
  8
LC-002-002-----0
 62
     7
370
    25
100
AcDbLine
 10
1540.720629
 20
1899.53
 30
0.0
 11
1540.720629
 21
1913.03
 31
0.0
  0
INSERT
  5
2A6
102
{ACAD_REACTORS
330
5A9
102
}
330
1F
100
AcDbEntity
  8
LC-002-002-----0
 62
     7
370
    25
100
AcDbBlockReference
  2
POLY2
 10
0.0
 20
0.0
 30
0.0
  0
LINE
  5
2A7
102
{ACAD_REACTORS
330
5A9
102
}
330
1F
100
AcDbEntity
  8
LC-002-002-----0
 62
     7
370
    25
100
AcDbLine
 10
1517.50679
 20
1899.53
 30
0.0
 11
1517.50679
 21
1913.03
 31
0.0
  0
INSERT
  5
2B7
102
{ACAD_REACTORS
330
5A9
102
}
330
1F
100
AcDbEntity
  8
LC-002-002-----0
 62
     7
370
    25
100
AcDbBlockReference
  2
POLY3
 10
0.0
 20
0.0
 30
0.0
  0
LINE
  5
2B8
102
{ACAD_REACTORS
330
5A9
102
}
330
1F
100
AcDbEntity
  8
LC-002-002-----0
 62
     7
370
    25
100
AcDbLine
 10
1494.295748
 20
1913.03
 30
0.0
 11
1494.295748
 21
1899.53
 31
0.0
  0
INSERT
  5
2C8
102
{ACAD_REACTORS
330
5A9
102
}
330
1F
100
AcDbEntity
  8
LC-002-002-----0
 62
     7
370
    25
100
AcDbBlockReference
  2
POLY4
 10
0.0
 20
0.0
 30
0.0
  0
LINE
  5
2C9
102
{ACAD_REACTORS
330
5AA
102
}
330
1F
100
AcDbEntity
  8
LC-002-002-----0
 62
     7
370
    25
100
AcDbLine
 10
1592.110471
 20
1896.03
 30
0.0
 11
1592.110471
 21
1786.03
 31
0.0
  0
LINE
  5
2CA
102
{ACAD_REACTORS
330
5AA
102
}
330
1F
100
AcDbEntity
  8
LC-002-002-----0
 62
     7
370
    25
100
AcDbLine
 10
1588.110471
 20
1786.03
 30
0.0
 11
1592.110471
 21
1786.03
 31
0.0
  0
LINE
  5
2CB
102
{ACAD_REACTORS
330
5AA
102
}
330
1F
100
AcDbEntity
  8
LC-002-002-----0
 62
     7
370
    25
100
AcDbLine
 10
1549.467789
 20
1803.53
 30
0.0
 11
1549.467789
 21
1878.53
 31
0.0
  0
LINE
  5
2CC
102
{ACAD_REACTORS
330
5AA
102
}
330
1F
100
AcDbEntity
  8
LC-002-002-----0
 62
     7
370
    25
100
AcDbLine
 10
1551.96779
 20
1801.525036
 30
0.0
 11
1551.96779
 21
1803.53
 31
0.0
  0
LINE
  5
2CD
102
{ACAD_REACTORS
330
5AA
102
}
330
1F
100
AcDbEntity
  8
LC-002-002-----0
 62
     7
370
    25
100
AcDbLine
 10
1556.297564
 20
1798.28061
 30
0.0
 11
1557.307913
 21
1796.530635
 31
0.0
  0
LINE
  5
2CE
102
{ACAD_REACTORS
330
5AA
102
}
330
1F
100
AcDbEntity
  8
LC-002-002-----0
 62
     7
370
    25
100
AcDbLine
 10
1551.96779
 20
1803.53
 30
0.0
 11
1549.467789
 21
1803.53
 31
0.0
  0
LINE
  5
2CF
102
{ACAD_REACTORS
330
5AA
102
}
330
1F
100
AcDbEntity
  8
LC-002-002-----0
 62
     7
370
    25
100
AcDbLine
 10
1562.504432
 20
1793.53
 30
0.0
 11
1577.967789
 21
1793.53
 31
0.0
  0
LINE
  5
2D0
102
{ACAD_REACTORS
330
5AA
102
}
330
1F
100
AcDbEntity
  8
LC-002-002-----0
 62
     7
370
    25
100
AcDbLine
 10
1587.650248
 20
1786.03
 30
0.0
 11
1588.110471
 21
1786.03
 31
0.0
  0
ARC
  5
2D1
102
{ACAD_REACTORS
330
5AA
102
}
330
1F
100
AcDbEntity
  8
LC-002-002-----0
 62
     7
370
    25
100
AcDbCircle
 10
1577.967789
 20
1789.53
 30
0.0
 40
3.999999999999869
100
AcDbArc
 50
14.492147
 51
90.0
  0
ARC
  5
2D2
102
{ACAD_REACTORS
330
5AA
102
}
330
1F
100
AcDbEntity
  8
LC-002-002-----0
 62
     7
370
    25
100
AcDbCircle
 10
1587.650248
 20
1792.03
 30
0.0
 40
6.000000000000098
100
AcDbArc
 50
194.469452
 51
270.0
  0
ARC
  5
2D3
102
{ACAD_REACTORS
330
5AA
102
}
330
1F
100
AcDbEntity
  8
LC-002-002-----0
 62
     7
370
    25
100
AcDbCircle
 10
1562.504432
 20
1799.53
 30
0.0
 40
5.999999999999863
100
AcDbArc
 50
209.988476
 51
270.0
  0
ARC
  5
2D4
102
{ACAD_REACTORS
330
5AA
102
}
330
1F
100
AcDbEntity
  8
LC-002-002-----0
 62
     7
370
    25
100
AcDbCircle
 10
1551.967789
 20
1795.78
 30
0.0
 40
5.000000000000414
100
AcDbArc
 50
30.016153
 51
82.072225
  0
ARC
  5
2D5
102
{ACAD_REACTORS
330
5AA
102
}
330
1F
100
AcDbEntity
  8
LC-002-002-----0
 62
     7
370
    25
100
AcDbCircle
 10
1552.767789
 20
1801.524563
 30
0.0
 40
0.8000000000001819
100
AcDbArc
 50
180.0
 51
262.062606
  0
LINE
  5
2D6
102
{ACAD_REACTORS
330
5AA
102
}
330
1F
100
AcDbEntity
  8
LC-002-002-----0
 62
     7
370
    25
100
AcDbLine
 10
1588.110471
 20
1896.03
 30
0.0
 11
1592.110471
 21
1896.03
 31
0.0
  0
LINE
  5
2D7
102
{ACAD_REACTORS
330
5AA
102
}
330
1F
100
AcDbEntity
  8
LC-002-002-----0
 62
     7
370
    25
100
AcDbLine
 10
1556.297564
 20
1883.77939
 30
0.0
 11
1557.307913
 21
1885.529365
 31
0.0
  0
LINE
  5
2D8
102
{ACAD_REACTORS
330
5AA
102
}
330
1F
100
AcDbEntity
  8
LC-002-002-----0
 62
     7
370
    25
100
AcDbLine
 10
1551.96779
 20
1878.53
 30
0.0
 11
1549.467789
 21
1878.53
 31
0.0
  0
LINE
  5
2D9
102
{ACAD_REACTORS
330
5AA
102
}
330
1F
100
AcDbEntity
  8
LC-002-002-----0
 62
     7
370
    25
100
AcDbLine
 10
1562.504432
 20
1888.53
 30
0.0
 11
1577.967789
 21
1888.53
 31
0.0
  0
LINE
  5
2DA
102
{ACAD_REACTORS
330
5AA
102
}
330
1F
100
AcDbEntity
  8
LC-002-002-----0
 62
     7
370
    25
100
AcDbLine
 10
1587.650248
 20
1896.03
 30
0.0
 11
1588.110471
 21
1896.03
 31
0.0
  0
ARC
  5
2DB
102
{ACAD_REACTORS
330
5AA
102
}
330
1F
100
AcDbEntity
  8
LC-002-002-----0
 62
     7
370
    25
100
AcDbCircle
 10
1577.967789
 20
1892.53
 30
0.0
 40
4.0
100
AcDbArc
 50
270.0
 51
345.507853
  0
ARC
  5
2DC
102
{ACAD_REACTORS
330
5AA
102
}
330
1F
100
AcDbEntity
  8
LC-002-002-----0
 62
     7
370
    25
100
AcDbCircle
 10
1587.650248
 20
1890.03
 30
0.0
 40
6.0
100
AcDbArc
 50
90.0
 51
165.530548
  0
ARC
  5
2DD
102
{ACAD_REACTORS
330
5AA
102
}
330
1F
100
AcDbEntity
  8
LC-002-002-----0
 62
     7
370
    25
100
AcDbCircle
 10
1562.504432
 20
1882.53
 30
0.0
 40
6.0
100
AcDbArc
 50
90.0
 51
150.011524
  0
ARC
  5
2DE
102
{ACAD_REACTORS
330
5AA
102
}
330
1F
100
AcDbEntity
  8
LC-002-002-----0
 62
     7
370
    25
100
AcDbCircle
 10
1551.967789
 20
1886.28
 30
0.0
 40
5.000000000000194
100
AcDbArc
 50
277.927775
 51
329.983847
  0
ARC
  5
2DF
102
{ACAD_REACTORS
330
5AA
102
}
330
1F
100
AcDbEntity
  8
LC-002-002-----0
 62
     7
370
    25
100
AcDbCircle
 10
1552.767789
 20
1880.535437
 30
0.0
 40
0.7999999999998813
100
AcDbArc
 50
97.937394
 51
180.0
  0
LINE
  5
2E0
102
{ACAD_REACTORS
330
5B1
102
}
330
1F
100
AcDbEntity
  8
LC-002-002-----0
 62
     7
370
    25
100
AcDbLine
 10
1557.360471
 20
1920.53
 30
0.0
 11
1557.360471
 21
1944.283621
 31
0.0
  0
LINE
  5
2E1
102
{ACAD_REACTORS
330
5AB
102
}
330
1F
100
AcDbEntity
  8
LC-002-002-----0
 62
     7
370
    25
100
AcDbLine
 10
1750.461902
 20
1962.76368
 30
0.0
 11
1711.530031
 21
1965.690982
 31
0.0
  0
LINE
  5
2E2
102
{ACAD_REACTORS
330
5B1
102
}
330
1F
100
AcDbEntity
  8
LC-002-002-----0
 62
     7
370
    25
100
AcDbLine
 10
1589.832911
 20
1957.480606
 30
0.0
 11
1569.860461
 21
1956.783152
 31
0.0
  0
LINE
  5
2E3
102
{ACAD_REACTORS
330
5B1
102
}
330
1F
100
AcDbEntity
  8
LC-002-002-----0
 62
     7
370
    25
100
AcDbLine
 10
1604.860471
 20
1964.283153
 30
0.0
 11
1610.860471
 21
1964.283153
 31
0.0
  0
LINE
  5
2E4
102
{ACAD_REACTORS
330
5B2
102
}
330
1F
100
AcDbEntity
  8
LC-002-002-----0
 62
     7
370
    25
100
AcDbLine
 10
1666.989392
 20
1964.382158
 30
0.0
 11
1616.896452
 21
1958.231519
 31
0.0
  0
LINE
  5
2E5
102
{ACAD_REACTORS
330
5B1
102
}
330
1F
100
AcDbEntity
  8
LC-002-002-----0
 62
     7
370
    25
100
AcDbLine
 10
1582.360471
 20
1920.53
 30
0.0
 11
1582.360471
 21
1931.346643
 31
0.0
  0
LINE
  5
2E6
102
{ACAD_REACTORS
330
5AB
102
}
330
1F
100
AcDbEntity
  8
LC-002-002-----0
 62
     7
370
    25
100
AcDbLine
 10
1702.925949
 20
1964.825024
 30
0.0
 11
1702.875746
 21
1964.813352
 31
0.0
  0
LINE
  5
2E7
102
{ACAD_REACTORS
330
5AC
102
}
330
1F
100
AcDbEntity
  8
LC-002-002-----0
 62
     7
370
    25
100
AcDbLine
 10
1702.301845
 20
1966.199208
 30
0.0
 11
1667.790338
 21
1961.961727
 31
0.0
  0
LINE
  5
2E8
102
{ACAD_REACTORS
330
5AB
102
}
330
1F
100
AcDbEntity
  8
LC-002-002-----0
 62
     7
370
    25
100
AcDbLine
 10
1711.234916
 20
1965.684035
 30
0.0
 11
1702.945448
 21
1964.666216
 31
0.0
  0
LINE
  5
2E9
102
{ACAD_REACTORS
330
5AB
102
}
330
1F
100
AcDbEntity
  8
LC-002-002-----0
 62
     7
370
    25
100
AcDbLine
 10
1705.107059
 20
1946.640758
 30
0.0
 11
1705.158595
 21
1946.641578
 31
0.0
  0
LINE
  5
2EA
102
{ACAD_REACTORS
330
5B1
102
}
330
1F
100
AcDbEntity
  8
LC-002-002-----0
 62
     7
370
    25
100
AcDbLine
 10
1610.86047
 20
1964.283153
 30
0.0
 11
1610.860471
 21
1924.283153
 31
0.0
  0
LINE
  5
2EB
102
{ACAD_REACTORS
330
5AB
102
}
330
1F
100
AcDbEntity
  8
LC-002-002-----0
 62
     7
370
    25
100
AcDbLine
 10
1719.283496
 20
1950.048364
 30
0.0
 11
1754.335121
 21
1954.352163
 31
0.0
  0
LINE
  5
2EC
102
{ACAD_REACTORS
330
5AB
102
}
330
1F
100
AcDbEntity
  8
LC-002-002-----0
 62
     7
370
    25
100
AcDbLine
 10
1705.139096
 20
1946.800386
 30
0.0
 11
1717.297816
 21
1948.293289
 31
0.0
  0
LINE
  5
2ED
102
{ACAD_REACTORS
330
5AC
102
}
330
1F
100
AcDbEntity
  8
LC-002-002-----0
 62
     7
370
    25
100
AcDbLine
 10
1670.373968
 20
1940.919749
 30
0.0
 11
1704.885754
 21
1945.157263
 31
0.0
  0
LINE
  5
2EE
102
{ACAD_REACTORS
330
5B2
102
}
330
1F
100
AcDbEntity
  8
LC-002-002-----0
 62
     7
370
    25
100
AcDbLine
 10
1670.036125
 20
1939.568504
 30
0.0
 11
1619.943185
 21
1933.417865
 31
0.0
  0
LINE
  5
2EF
102
{ACAD_REACTORS
330
5AB
102
}
330
1F
100
AcDbEntity
  8
LC-002-002-----0
 62
     7
370
    25
100
AcDbLine
 10
1717.663395
 20
1945.315647
 30
0.0
 11
1755.876421
 21
1950.007616
 31
0.0
  0
LINE
  5
2F0
102
{ACAD_REACTORS
330
5B1
102
}
330
1F
100
AcDbEntity
  8
LC-002-002-----0
 62
     7
370
    25
100
AcDbLine
 10
1604.860471
 20
1924.283153
 30
0.0
 11
1610.860471
 21
1924.283153
 31
0.0
  0
LINE
  5
2F1
102
{ACAD_REACTORS
330
5B1
102
}
330
1F
100
AcDbEntity
  8
LC-002-002-----0
 62
     7
370
    25
100
AcDbLine
 10
1589.832911
 20
1931.0857
 30
0.0
 11
1582.357842
 21
1931.346735
 31
0.0
  0
LINE
  5
2F2
102
{ACAD_REACTORS
330
5B2
102
}
330
1F
100
AcDbEntity
  8
LC-002-002-----0
 62
     7
370
    25
100
AcDbLine
 10
1619.943185
 20
1933.417865
 30
0.0
 11
1616.896452
 21
1958.231519
 31
0.0
  0
LINE
  5
2F3
102
{ACAD_REACTORS
330
5B2
102
}
330
1F
100
AcDbEntity
  8
LC-002-002-----0
 62
     7
370
    25
100
AcDbLine
 10
1670.471464
 20
1940.125712
 30
0.0
 11
1667.5466
 21
1963.94682
 31
0.0
  0
LINE
  5
2F4
102
{ACAD_REACTORS
330
5AC
102
}
330
1F
100
AcDbEntity
  8
LC-002-002-----0
 62
     7
370
    25
100
AcDbLine
 10
1705.222271
 20
1945.702433
 30
0.0
 11
1702.760532
 21
1965.751693
 31
0.0
  0
LINE
  5
2F5
102
{ACAD_REACTORS
330
5AB
102
}
330
1F
100
AcDbEntity
  8
LC-002-002-----0
 62
     7
370
    25
100
AcDbLine
 10
1705.158595
 20
1946.641578
 30
0.0
 11
1705.139096
 21
1946.800386
 31
0.0
  0
LINE
  5
2F6
102
{ACAD_REACTORS
330
5AB
102
}
330
1F
100
AcDbEntity
  8
LC-002-002-----0
 62
     7
370
    25
100
AcDbLine
 10
1717.663395
 20
1945.315647
 30
0.0
 11
1717.297787
 21
1948.293285
 31
0.0
  0
LINE
  5
2F7
102
{ACAD_REACTORS
330
5AB
102
}
330
1F
100
AcDbEntity
  8
LC-002-002-----0
 62
     7
370
    25
100
AcDbLine
 10
1718.407804
 20
1945.407049
 30
0.0
 11
1718.651543
 21
1943.421956
 31
0.0
  0
LINE
  5
2F8
102
{ACAD_REACTORS
330
5AB
102
}
330
1F
100
AcDbEntity
  8
LC-002-002-----0
 62
     7
370
    25
100
AcDbLine
 10
1752.476638
 20
1955.13148
 30
0.0
 11
1751.684431
 21
1961.583492
 31
0.0
  0
LINE
  5
2F9
102
{ACAD_REACTORS
330
5AB
102
}
330
1F
100
AcDbEntity
  8
LC-002-002-----0
 62
     7
370
    25
100
AcDbLine
 10
1755.132012
 20
1949.916214
 30
0.0
 11
1755.375751
 21
1947.931122
 31
0.0
  0
LINE
  5
2FA
102
{ACAD_REACTORS
330
5AB
102
}
330
1F
100
AcDbEntity
  8
LC-002-002-----0
 62
     7
370
    25
100
AcDbLine
 10
1755.876421
 20
1950.007616
 30
0.0
 11
1755.449879
 21
1953.481528
 31
0.0
  0
ARC
  5
2FB
102
{ACAD_REACTORS
330
5B2
102
}
330
1F
100
AcDbEntity
  8
LC-002-002-----0
 62
     7
370
    25
100
AcDbCircle
 10
1669.975191
 20
1940.064777
 30
0.0
 40
0.5000000000005059
100
AcDbArc
 50
277.0
 51
7.0
  0
ARC
  5
2FC
102
{ACAD_REACTORS
330
5B2
102
}
330
1F
100
AcDbEntity
  8
LC-002-002-----0
 62
     7
370
    25
100
AcDbCircle
 10
1667.050327
 20
1963.885885
 30
0.0
 40
0.5000000000004504
100
AcDbArc
 50
7.0
 51
97.0
  0
ARC
  5
2FD
102
{ACAD_REACTORS
330
5B2
102
}
330
1F
100
AcDbEntity
  8
LC-002-002-----0
 62
     7
370
    25
100
AcDbCircle
 10
1620.065055
 20
1932.425319
 30
0.0
 40
0.9999999999995469
100
AcDbArc
 50
97.0
 51
140.137678
  0
ARC
  5
2FE
102
{ACAD_REACTORS
330
5B2
102
}
330
1F
100
AcDbEntity
  8
LC-002-002-----0
 62
     7
370
    25
100
AcDbCircle
 10
1616.774582
 20
1959.224065
 30
0.0
 40
0.9999999999997226
100
AcDbArc
 50
233.862322
 51
277.0
  0
ARC
  5
2FF
102
{ACAD_REACTORS
330
5B2
102
}
330
1F
100
AcDbEntity
  8
LC-002-002-----0
 62
     7
370
    25
100
AcDbCircle
 10
1605.864992
 20
1944.283153
 30
0.0
 40
17.50000000000014
100
AcDbArc
 50
53.85835
 51
74.413898
  0
ARC
  5
300
102
{ACAD_REACTORS
330
5B2
102
}
330
1F
100
AcDbEntity
  8
LC-002-002-----0
 62
     7
370
    25
100
AcDbCircle
 10
1605.864992
 20
1944.283153
 30
0.0
 40
17.50000000000006
100
AcDbArc
 50
287.586103
 51
320.141806
  0
ARC
  5
301
102
{ACAD_REACTORS
330
5AB
102
}
330
1F
100
AcDbEntity
  8
LC-002-002-----0
 62
     7
370
    25
100
AcDbCircle
 10
1754.457333
 20
1953.359659
 30
0.0
 40
0.9999999999999982
100
AcDbArc
 50
7.0
 51
97.0
  0
ARC
  5
302
102
{ACAD_REACTORS
330
5AB
102
}
330
1F
100
AcDbEntity
  8
LC-002-002-----0
 62
     7
370
    25
100
AcDbCircle
 10
1753.469184
 20
1955.253349
 30
0.0
 40
1.000000000000622
100
AcDbArc
 50
187.0
 51
276.987263
  0
ARC
  5
303
102
{ACAD_REACTORS
330
5B1
102
}
330
1F
100
AcDbEntity
  8
LC-002-002-----0
 62
     7
370
    25
100
AcDbCircle
 10
1604.860471
 20
1944.283153
 30
0.0
 40
19.99999999999979
100
AcDbArc
 50
221.290426
 51
270.0
  0
ARC
  5
304
102
{ACAD_REACTORS
330
5B1
102
}
330
1F
100
AcDbEntity
  8
LC-002-002-----0
 62
     7
370
    25
100
AcDbCircle
 10
1604.860471
 20
1944.283153
 30
0.0
 40
20.0
100
AcDbArc
 50
90.0
 51
138.709438
  0
ARC
  5
305
102
{ACAD_REACTORS
330
5B1
102
}
330
1F
100
AcDbEntity
  8
LC-002-002-----0
 62
     7
370
    25
100
AcDbCircle
 10
1569.860471
 20
1944.283153
 30
0.0
 40
12.5
100
AcDbArc
 50
90.0
 51
180.0
  0
INSERT
  5
31D
102
{ACAD_REACTORS
330
5AB
102
}
330
1F
100
AcDbEntity
  8
LC-002-002-----0
 62
     7
370
    25
100
AcDbBlockReference
  2
POLY5
 10
0.0
 20
0.0
 30
0.0
  0
INSERT
  5
327
102
{ACAD_REACTORS
330
5AB
102
}
330
1F
100
AcDbEntity
  8
LC-002-002-----0
 62
     7
370
    25
100
AcDbBlockReference
  2
POLY6
 10
0.0
 20
0.0
 30
0.0
  0
INSERT
  5
339
102
{ACAD_REACTORS
330
5AB
102
}
330
1F
100
AcDbEntity
  8
LC-002-002-----0
 62
     7
370
    25
100
AcDbBlockReference
  2
POLY7
 10
0.0
 20
0.0
 30
0.0
  0
INSERT
  5
363
102
{ACAD_REACTORS
330
5B1
102
}
330
1F
100
AcDbEntity
  8
LC-002-002-----0
 62
     7
370
    25
100
AcDbBlockReference
  2
POLY8
 10
0.0
 20
0.0
 30
0.0
  0
LINE
  5
364
102
{ACAD_REACTORS
330
5AC
102
}
330
1F
100
AcDbEntity
  8
LC-002-002-----0
 62
     7
370
    25
100
AcDbLine
 10
1704.885754
 20
1945.157263
 30
0.0
 11
1705.095168
 21
1945.304406
 31
0.0
  0
LINE
  5
365
102
{ACAD_REACTORS
330
5AC
102
}
330
1F
100
AcDbEntity
  8
LC-002-002-----0
 62
     7
370
    25
100
AcDbLine
 10
1705.095168
 20
1945.304406
 30
0.0
 11
1705.203101
 21
1945.492036
 31
0.0
  0
LINE
  5
366
102
{ACAD_REACTORS
330
5AC
102
}
330
1F
100
AcDbEntity
  8
LC-002-002-----0
 62
     7
370
    25
100
AcDbLine
 10
1705.203101
 20
1945.492036
 30
0.0
 11
1705.222271
 21
1945.702433
 31
0.0
  0
LINE
  5
367
102
{ACAD_REACTORS
330
5AC
102
}
330
1F
100
AcDbEntity
  8
LC-002-002-----0
 62
     7
370
    25
100
AcDbLine
 10
1702.760532
 20
1965.751693
 30
0.0
 11
1702.690898
 21
1965.951422
 31
0.0
  0
LINE
  5
368
102
{ACAD_REACTORS
330
5AC
102
}
330
1F
100
AcDbEntity
  8
LC-002-002-----0
 62
     7
370
    25
100
AcDbLine
 10
1702.690898
 20
1965.951422
 30
0.0
 11
1702.540547
 21
1966.107391
 31
0.0
  0
LINE
  5
369
102
{ACAD_REACTORS
330
5AC
102
}
330
1F
100
AcDbEntity
  8
LC-002-002-----0
 62
     7
370
    25
100
AcDbLine
 10
1702.540547
 20
1966.107391
 30
0.0
 11
1702.301845
 21
1966.199208
 31
0.0
  0
LINE
  5
36A
102
{ACAD_REACTORS
330
5AB
102
}
330
1F
100
AcDbEntity
  8
LC-002-002-----0
 62
     7
370
    25
100
AcDbLine
 10
1751.672469
 20
1961.614377
 30
0.0
 11
1751.672469
 21
1961.614377
 31
0.0
  0
LINE
  5
36B
102
{ACAD_REACTORS
330
5AB
102
}
330
1F
100
AcDbEntity
  8
LC-002-002-----0
 62
     7
370
    25
100
AcDbLine
 10
1751.684431
 20
1961.583492
 30
0.0
 11
1751.517391
 21
1962.01478
 31
0.0
  0
LINE
  5
36C
102
{ACAD_REACTORS
330
5AB
102
}
330
1F
100
AcDbEntity
  8
LC-002-002-----0
 62
     7
370
    25
100
AcDbLine
 10
1751.517391
 20
1962.01478
 30
0.0
 11
1751.517391
 21
1962.01478
 31
0.0
  0
LINE
  5
36D
102
{ACAD_REACTORS
330
5AB
102
}
330
1F
100
AcDbEntity
  8
LC-002-002-----0
 62
     7
370
    25
100
AcDbLine
 10
1751.517391
 20
1962.01478
 30
0.0
 11
1751.254959
 21
1962.355085
 31
0.0
  0
LINE
  5
36E
102
{ACAD_REACTORS
330
5AB
102
}
330
1F
100
AcDbEntity
  8
LC-002-002-----0
 62
     7
370
    25
100
AcDbLine
 10
1751.254959
 20
1962.355085
 30
0.0
 11
1751.254959
 21
1962.355085
 31
0.0
  0
LINE
  5
36F
102
{ACAD_REACTORS
330
5AB
102
}
330
1F
100
AcDbEntity
  8
LC-002-002-----0
 62
     7
370
    25
100
AcDbLine
 10
1751.254959
 20
1962.355085
 30
0.0
 11
1750.906597
 21
1962.607087
 31
0.0
  0
LINE
  5
370
102
{ACAD_REACTORS
330
5AB
102
}
330
1F
100
AcDbEntity
  8
LC-002-002-----0
 62
     7
370
    25
100
AcDbLine
 10
1750.906597
 20
1962.607087
 30
0.0
 11
1750.906597
 21
1962.607087
 31
0.0
  0
LINE
  5
371
102
{ACAD_REACTORS
330
5AB
102
}
330
1F
100
AcDbEntity
  8
LC-002-002-----0
 62
     7
370
    25
100
AcDbLine
 10
1750.906597
 20
1962.607087
 30
0.0
 11
1750.461902
 21
1962.76368
 31
0.0
  0
LINE
  5
372
102
{ACAD_REACTORS
330
5AA
102
}
330
1F
100
AcDbEntity
  8
LC-002-002-----0
 62
     7
370
    25
100
AcDbLine
 10
1585.005471
 20
1901.03
 30
0.0
 11
1584.960471
 21
1901.03
 31
0.0
  0
LINE
  5
373
102
{ACAD_REACTORS
330
5AA
102
}
330
1F
100
AcDbEntity
  8
LC-002-002-----0
 62
     7
370
    25
100
AcDbLine
 10
1554.715471
 20
1901.284729
 30
0.0
 11
1554.715471
 21
1901.03
 31
0.0
  0
LINE
  5
374
102
{ACAD_REACTORS
330
5AA
102
}
330
1F
100
AcDbEntity
  8
LC-002-002-----0
 62
     7
370
    25
100
AcDbLine
 10
1585.005471
 20
1901.284729
 30
0.0
 11
1585.005471
 21
1901.03
 31
0.0
  0
LINE
  5
375
102
{ACAD_REACTORS
330
5AA
102
}
330
1F
100
AcDbEntity
  8
LC-002-002-----0
 62
     7
370
    25
100
AcDbLine
 10
1554.715471
 20
1905.907365
 30
0.0
 11
1553.235522
 21
1905.136952
 31
0.0
  0
LINE
  5
376
102
{ACAD_REACTORS
330
5AA
102
}
330
1F
100
AcDbEntity
  8
LC-002-002-----0
 62
     7
370
    25
100
AcDbLine
 10
1554.715471
 20
1904.366486
 30
0.0
 11
1553.235522
 21
1903.596074
 31
0.0
  0
LINE
  5
377
102
{ACAD_REACTORS
330
5AA
102
}
330
1F
100
AcDbEntity
  8
LC-002-002-----0
 62
     7
370
    25
100
AcDbLine
 10
1554.715471
 20
1902.825608
 30
0.0
 11
1553.235522
 21
1902.055195
 31
0.0
  0
LINE
  5
378
102
{ACAD_REACTORS
330
5AA
102
}
330
1F
100
AcDbEntity
  8
LC-002-002-----0
 62
     7
370
    25
100
AcDbLine
 10
1586.485419
 20
1905.136898
 30
0.0
 11
1585.005471
 21
1904.366486
 31
0.0
  0
LINE
  5
379
102
{ACAD_REACTORS
330
5AA
102
}
330
1F
100
AcDbEntity
  8
LC-002-002-----0
 62
     7
370
    25
100
AcDbLine
 10
1586.485419
 20
1903.59602
 30
0.0
 11
1585.005471
 21
1902.825608
 31
0.0
  0
LINE
  5
37A
102
{ACAD_REACTORS
330
5AA
102
}
330
1F
100
AcDbEntity
  8
LC-002-002-----0
 62
     7
370
    25
100
AcDbLine
 10
1586.485419
 20
1902.055142
 30
0.0
 11
1585.005471
 21
1901.284729
 31
0.0
  0
LINE
  5
37B
102
{ACAD_REACTORS
330
5AA
102
}
330
1F
100
AcDbEntity
  8
LC-002-002-----0
 62
     7
370
    25
100
AcDbLine
 10
1585.005471
 20
1905.907365
 30
0.0
 11
1586.485419
 21
1905.136952
 31
0.0
  0
LINE
  5
37C
102
{ACAD_REACTORS
330
5AA
102
}
330
1F
100
AcDbEntity
  8
LC-002-002-----0
 62
     7
370
    25
100
AcDbLine
 10
1585.005471
 20
1904.366486
 30
0.0
 11
1586.485419
 21
1903.596074
 31
0.0
  0
LINE
  5
37D
102
{ACAD_REACTORS
330
5AA
102
}
330
1F
100
AcDbEntity
  8
LC-002-002-----0
 62
     7
370
    25
100
AcDbLine
 10
1585.005471
 20
1902.825608
 30
0.0
 11
1586.485419
 21
1902.055195
 31
0.0
  0
LINE
  5
37E
102
{ACAD_REACTORS
330
5AA
102
}
330
1F
100
AcDbEntity
  8
LC-002-002-----0
 62
     7
370
    25
100
AcDbLine
 10
1553.235522
 20
1905.136898
 30
0.0
 11
1554.715471
 21
1904.366486
 31
0.0
  0
LINE
  5
37F
102
{ACAD_REACTORS
330
5AA
102
}
330
1F
100
AcDbEntity
  8
LC-002-002-----0
 62
     7
370
    25
100
AcDbLine
 10
1553.235522
 20
1903.59602
 30
0.0
 11
1554.715471
 21
1902.825608
 31
0.0
  0
LINE
  5
380
102
{ACAD_REACTORS
330
5AA
102
}
330
1F
100
AcDbEntity
  8
LC-002-002-----0
 62
     7
370
    25
100
AcDbLine
 10
1553.235522
 20
1902.055142
 30
0.0
 11
1554.715471
 21
1901.284729
 31
0.0
  0
LINE
  5
381
102
{ACAD_REACTORS
330
5AA
102
}
330
1F
100
AcDbEntity
  8
LC-002-002-----0
 62
     7
370
    25
100
AcDbLine
 10
1549.860471
 20
1906.03
 30
0.0
 11
1549.860471
 21
1908.03
 31
0.0
  0
LINE
  5
382
102
{ACAD_REACTORS
330
5AA
102
}
330
1F
100
AcDbEntity
  8
LC-002-002-----0
 62
     7
370
    25
100
AcDbLine
 10
1551.903233
 20
1908.780001
 30
0.0
 11
1551.903233
 21
1920.519234
 31
0.0
  0
LINE
  5
383
102
{ACAD_REACTORS
330
5AA
102
}
330
1F
100
AcDbEntity
  8
LC-002-002-----0
 62
     7
370
    25
100
AcDbLine
 10
1552.975694
 20
1908.28
 30
0.0
 11
1552.975694
 21
1918.53
 31
0.0
  0
LINE
  5
384
102
{ACAD_REACTORS
330
5AA
102
}
330
1F
100
AcDbEntity
  8
LC-002-002-----0
 62
     7
370
    25
100
AcDbLine
 10
1569.430094
 20
1908.28
 30
0.0
 11
1569.430094
 21
1918.53
 31
0.0
  0
LINE
  5
385
102
{ACAD_REACTORS
330
5AA
102
}
330
1F
100
AcDbEntity
  8
LC-002-002-----0
 62
     7
370
    25
100
AcDbLine
 10
1570.290848
 20
1908.28
 30
0.0
 11
1570.290848
 21
1918.53
 31
0.0
  0
LINE
  5
386
102
{ACAD_REACTORS
330
5AA
102
}
330
1F
100
AcDbEntity
  8
LC-002-002-----0
 62
     7
370
    25
100
AcDbLine
 10
1586.745247
 20
1908.28
 30
0.0
 11
1586.745247
 21
1918.53
 31
0.0
  0
LINE
  5
387
102
{ACAD_REACTORS
330
5AA
102
}
330
1F
100
AcDbEntity
  8
LC-002-002-----0
 62
     7
370
    25
100
AcDbLine
 10
1587.817709
 20
1908.780001
 30
0.0
 11
1587.817709
 21
1920.519234
 31
0.0
  0
LINE
  5
388
102
{ACAD_REACTORS
330
5AA
102
}
330
1F
100
AcDbEntity
  8
LC-002-002-----0
 62
     7
370
    25
100
AcDbLine
 10
1589.860471
 20
1906.03
 30
0.0
 11
1589.860471
 21
1908.03
 31
0.0
  0
LINE
  5
389
102
{ACAD_REACTORS
330
5AA
102
}
330
1F
100
AcDbEntity
  8
LC-002-002-----0
 62
     7
370
    25
100
AcDbLine
 10
1549.860568
 20
1908.030097
 30
0.0
 11
1550.610458
 21
1908.779987
 31
0.0
  0
LINE
  5
38A
102
{ACAD_REACTORS
330
5AA
102
}
330
1F
100
AcDbEntity
  8
LC-002-002-----0
 62
     7
370
    25
100
AcDbLine
 10
1552.110661
 20
1920.53
 30
0.0
 11
1587.61028
 21
1920.53
 31
0.0
  0
LINE
  5
38B
102
{ACAD_REACTORS
330
5AA
102
}
330
1F
100
AcDbEntity
  8
LC-002-002-----0
 62
     7
370
    25
100
AcDbLine
 10
1554.162987
 20
1908.780142
 30
0.0
 11
1568.059884
 21
1908.780142
 31
0.0
  0
LINE
  5
38C
102
{ACAD_REACTORS
330
5AA
102
}
330
1F
100
AcDbEntity
  8
LC-002-002-----0
 62
     7
370
    25
100
AcDbLine
 10
1571.661057
 20
1908.780142
 30
0.0
 11
1585.557954
 21
1908.780142
 31
0.0
  0
LINE
  5
38D
102
{ACAD_REACTORS
330
5AA
102
}
330
1F
100
AcDbEntity
  8
LC-002-002-----0
 62
     7
370
    25
100
AcDbLine
 10
1550.610458
 20
1908.779987
 30
0.0
 11
1552.36226
 21
1908.779987
 31
0.0
  0
LINE
  5
38E
102
{ACAD_REACTORS
330
5AA
102
}
330
1F
100
AcDbEntity
  8
LC-002-002-----0
 62
     7
370
    25
100
AcDbLine
 10
1587.35867
 20
1908.78
 30
0.0
 11
1589.110483
 21
1908.779987
 31
0.0
  0
LINE
  5
38F
102
{ACAD_REACTORS
330
5AA
102
}
330
1F
100
AcDbEntity
  8
LC-002-002-----0
 62
     7
370
    25
100
AcDbLine
 10
1552.545462
 20
1908.280092
 30
0.0
 11
1552.97577
 21
1908.280092
 31
0.0
  0
LINE
  5
390
102
{ACAD_REACTORS
330
5AA
102
}
330
1F
100
AcDbEntity
  8
LC-002-002-----0
 62
     7
370
    25
100
AcDbLine
 10
1586.745171
 20
1908.280092
 30
0.0
 11
1587.175479
 21
1908.280092
 31
0.0
  0
LINE
  5
391
102
{ACAD_REACTORS
330
5AA
102
}
330
1F
100
AcDbEntity
  8
LC-002-002-----0
 62
     7
370
    25
100
AcDbLine
 10
1569.427322
 20
1908.27999
 30
0.0
 11
1570.29362
 21
1908.27999
 31
0.0
  0
LINE
  5
392
102
{ACAD_REACTORS
330
5AA
102
}
330
1F
100
AcDbEntity
  8
LC-002-002-----0
 62
     7
370
    25
100
AcDbLine
 10
1549.860471
 20
1906.03
 30
0.0
 11
1589.860471
 21
1906.03
 31
0.0
  0
LINE
  5
393
102
{ACAD_REACTORS
330
5AA
102
}
330
1F
100
AcDbEntity
  8
LC-002-002-----0
 62
     7
370
    25
100
AcDbLine
 10
1589.860374
 20
1908.030097
 30
0.0
 11
1589.110483
 21
1908.779987
 31
0.0
  0
ARC
  5
394
102
{ACAD_REACTORS
330
5AA
102
}
330
1F
100
AcDbEntity
  8
LC-002-002-----0
 62
     7
370
    25
100
AcDbCircle
 10
1587.610471
 20
1918.53
 30
0.0
 40
1.999999999999995
100
AcDbArc
 50
84.05239
 51
90.0
  0
ARC
  5
395
102
{ACAD_REACTORS
330
5AA
102
}
330
1F
100
AcDbEntity
  8
LC-002-002-----0
 62
     7
370
    25
100
AcDbCircle
 10
1552.110471
 20
1918.53
 30
0.0
 40
2.0
100
AcDbArc
 50
90.0
 51
95.94761
  0
INSERT
  5
39F
102
{ACAD_REACTORS
330
5AA
102
}
330
1F
100
AcDbEntity
  8
LC-002-002-----0
 62
     7
370
    25
100
AcDbBlockReference
  2
POLY9
 10
0.0
 20
0.0
 30
0.0
  0
INSERT
  5
3A9
102
{ACAD_REACTORS
330
5AA
102
}
330
1F
100
AcDbEntity
  8
LC-002-002-----0
 62
     7
370
    25
100
AcDbBlockReference
  2
POLY10
 10
0.0
 20
0.0
 30
0.0
  0
INSERT
  5
3B3
102
{ACAD_REACTORS
330
5AA
102
}
330
1F
100
AcDbEntity
  8
LC-002-002-----0
 62
     7
370
    25
100
AcDbBlockReference
  2
POLY11
 10
0.0
 20
0.0
 30
0.0
  0
INSERT
  5
3FF
102
{ACAD_REACTORS
330
5AA
102
}
330
1F
100
AcDbEntity
  8
LC-002-002-----0
 62
     7
370
    25
100
AcDbBlockReference
  2
POLY12
 10
0.0
 20
0.0
 30
0.0
  0
INSERT
  5
409
102
{ACAD_REACTORS
330
5AA
102
}
330
1F
100
AcDbEntity
  8
LC-002-002-----0
 62
     7
370
    25
100
AcDbBlockReference
  2
POLY13
 10
0.0
 20
0.0
 30
0.0
  0
INSERT
  5
413
102
{ACAD_REACTORS
330
5AA
102
}
330
1F
100
AcDbEntity
  8
LC-002-002-----0
 62
     7
370
    25
100
AcDbBlockReference
  2
POLY14
 10
0.0
 20
0.0
 30
0.0
  0
INSERT
  5
41D
102
{ACAD_REACTORS
330
5AA
102
}
330
1F
100
AcDbEntity
  8
LC-002-002-----0
 62
     7
370
    25
100
AcDbBlockReference
  2
POLY15
 10
0.0
 20
0.0
 30
0.0
  0
INSERT
  5
469
102
{ACAD_REACTORS
330
5AA
102
}
330
1F
100
AcDbEntity
  8
LC-002-002-----0
 62
     7
370
    25
100
AcDbBlockReference
  2
POLY16
 10
0.0
 20
0.0
 30
0.0
  0
LINE
  5
46A
102
{ACAD_REACTORS
330
5AA
102
}
330
1F
100
AcDbEntity
  8
LC-002-002-----0
 62
     7
370
    25
100
AcDbLine
 10
1554.47989
 20
1906.03
 30
0.0
 11
1554.715471
 21
1905.907365
 31
0.0
  0
LINE
  5
46B
102
{ACAD_REACTORS
330
5AA
102
}
330
1F
100
AcDbEntity
  8
LC-002-002-----0
 62
     7
370
    25
100
AcDbLine
 10
1585.241051
 20
1906.03
 30
0.0
 11
1585.005471
 21
1905.907365
 31
0.0
  0
LINE
  5
46C
102
{ACAD_REACTORS
330
5AA
102
}
330
1F
100
AcDbEntity
  8
LC-002-002-----0
 62
     7
370
    25
100
AcDbLine
 10
1554.760471
 20
1901.03
 30
0.0
 11
1554.760471
 21
1882.1326
 31
0.0
  0
LINE
  5
46D
102
{ACAD_REACTORS
330
5AA
102
}
330
1F
100
AcDbEntity
  8
LC-002-002-----0
 62
     7
370
    25
100
AcDbLine
 10
1584.960471
 20
1901.03
 30
0.0
 11
1584.960471
 21
1896.012587
 31
0.0
  0
LINE
  5
46E
102
{ACAD_REACTORS
330
5AB
102
}
330
1F
100
AcDbEntity
  8
LC-002-002-----0
 62
     7
370
    25
100
AcDbLine
 10
1702.945448
 20
1964.666216
 30
0.0
 11
1702.925949
 21
1964.825024
 31
0.0
  0
LINE
  5
46F
102
{ACAD_REACTORS
330
5AA
102
}
330
1F
100
AcDbEntity
  8
LC-002-002-----0
 62
     7
370
    25
100
AcDbLine
 10
1554.760471
 20
1901.03
 30
0.0
 11
1554.715471
 21
1901.03
 31
0.0
  0
LINE
  5
470
102
{ACAD_REACTORS
330
5AA
102
}
330
1F
100
AcDbEntity
  8
LC-002-002-----0
 62
     7
370
    25
100
AcDbLine
 10
1551.96779
 20
1878.53
 30
0.0
 11
1551.96779
 21
1880.535437
 31
0.0
  0
LINE
  5
471
102
{ACAD_REACTORS
330
5A9
102
}
330
1F
100
AcDbEntity
  8
LC-002-002-----0
 62
     7
370
    25
100
AcDbLine
 10
1495.108242
 20
1891.873603
 30
0.0
 11
1494.556747
 21
1891.873603
 31
0.0
  0
LINE
  5
472
102
{ACAD_REACTORS
330
5AD
102
}
330
1F
100
AcDbEntity
  8
LC-002-002-----0
 62
     7
370
    50
100
AcDbLine
 10
654.907417
 20
896.324879
 30
0.0
 11
939.666279
 21
896.324879
 31
0.0
  0
ARC
  5
473
102
{ACAD_REACTORS
330
5AD
102
}
330
1F
100
AcDbEntity
  8
LC-002-002-----0
 62
     7
370
    50
100
AcDbCircle
 10
939.666279
 20
916.324879
 30
0.0
 40
20.0
100
AcDbArc
 50
270.0
 51
0.0
  0
LINE
  5
474
102
{ACAD_REACTORS
330
5AD
102
}
330
1F
100
AcDbEntity
  8
LC-002-002-----0
 62
     7
370
    50
100
AcDbLine
 10
959.666279
 20
1201.083741
 30
0.0
 11
959.666279
 21
916.324879
 31
0.0
  0
ARC
  5
475
102
{ACAD_REACTORS
330
5AD
102
}
330
1F
100
AcDbEntity
  8
LC-002-002-----0
 62
     7
370
    50
100
AcDbCircle
 10
939.666279
 20
1201.083741
 30
0.0
 40
20.0
100
AcDbArc
 50
0.0
 51
90.0
  0
LINE
  5
476
102
{ACAD_REACTORS
330
5AD
102
}
330
1F
100
AcDbEntity
  8
LC-002-002-----0
 62
     7
370
    50
100
AcDbLine
 10
654.907417
 20
1221.083741
 30
0.0
 11
939.666279
 21
1221.083741
 31
0.0
  0
ARC
  5
477
102
{ACAD_REACTORS
330
5AD
102
}
330
1F
100
AcDbEntity
  8
LC-002-002-----0
 62
     7
370
    50
100
AcDbCircle
 10
654.907417
 20
1201.083741
 30
0.0
 40
20.0
100
AcDbArc
 50
90.0
 51
180.0
  0
LINE
  5
478
102
{ACAD_REACTORS
330
5AD
102
}
330
1F
100
AcDbEntity
  8
LC-002-002-----0
 62
     7
370
    50
100
AcDbLine
 10
634.907417
 20
1201.083741
 30
0.0
 11
634.907417
 21
916.324879
 31
0.0
  0
ARC
  5
479
102
{ACAD_REACTORS
330
5AD
102
}
330
1F
100
AcDbEntity
  8
LC-002-002-----0
 62
     7
370
    50
100
AcDbCircle
 10
654.907417
 20
916.324879
 30
0.0
 40
20.0
100
AcDbArc
 50
180.0
 51
270.0
  0
TEXT
  5
47B
102
{ACAD_REACTORS
330
5AD
102
}
330
1F
100
AcDbEntity
  8
LC-007-004-----0
 62
     7
370
    35
100
AcDbText
 10
1198.656073
 20
1089.157362
 30
0.0
 40
35.0
  1
cutout
 41
0.8
  7
LCTX0-400-0-0pDIN-Schrift
100
AcDbText
  0
TEXT
  5
47C
102
{ACAD_REACTORS
330
5AD
102
}
330
1F
100
AcDbEntity
  8
LC-007-004-----0
 62
     7
370
    25
100
AcDbText
 10
1200.486842
 20
1024.407361
 30
0.0
 40
24.5
  1
CAD-files on request !
 41
0.8
  7
LCTX0-400-0-0pDIN-Schrift
100
AcDbText
  0
TEXT
  5
47D
330
1F
100
AcDbEntity
  8
LC-007-004-----0
 62
     7
370
    25
100
AcDbText
 10
1217.229571
 20
474.021603
 30
0.0
 40
25.0
  1
Art. Nr. 886
 41
0.8
  7
LCTX0-400-0-0pDIN-Schrift
100
AcDbText
  0
INSERT
  5
49A
330
1F
100
AcDbEntity
  8
LC-010-003-----0
 62
     7
370
    25
100
AcDbBlockReference
  2
LCDIM1
 10
0.0
 20
0.0
 30
0.0
  0
INSERT
  5
4B4
330
1F
100
AcDbEntity
  8
LC-010-003-----0
 62
     7
370
    25
100
AcDbBlockReference
  2
LCDIM2
 10
0.0
 20
0.0
 30
0.0
  0
INSERT
  5
4CE
330
1F
100
AcDbEntity
  8
LC-010-003-----0
 62
     7
370
    25
100
AcDbBlockReference
  2
LCDIM3
 10
0.0
 20
0.0
 30
0.0
  0
INSERT
  5
4E8
330
1F
100
AcDbEntity
  8
LC-010-003-----0
 62
     7
370
    25
100
AcDbBlockReference
  2
LCDIM4
 10
0.0
 20
0.0
 30
0.0
  0
INSERT
  5
4F7
330
1F
100
AcDbEntity
  8
LC-010-003-----0
 62
     7
370
    25
100
AcDbBlockReference
  2
LCDIM5
 10
0.0
 20
0.0
 30
0.0
  0
INSERT
  5
506
330
1F
100
AcDbEntity
  8
LC-010-003-----0
 62
     7
370
    25
100
AcDbBlockReference
  2
LCDIM6
 10
0.0
 20
0.0
 30
0.0
  0
INSERT
  5
520
330
1F
100
AcDbEntity
  8
LC-010-003-----0
 62
     7
370
    25
100
AcDbBlockReference
  2
LCDIM7
 10
0.0
 20
0.0
 30
0.0
  0
INSERT
  5
53A
330
1F
100
AcDbEntity
  8
LC-010-003-----0
 62
     7
370
    25
100
AcDbBlockReference
  2
LCDIM8
 10
0.0
 20
0.0
 30
0.0
  0
INSERT
  5
549
330
1F
100
AcDbEntity
  8
LC-010-003-----0
 62
     7
370
    25
100
AcDbBlockReference
  2
LCDIM9
 10
0.0
 20
0.0
 30
0.0
  0
INSERT
  5
563
330
1F
100
AcDbEntity
  8
LC-010-003-----0
 62
     7
370
    25
100
AcDbBlockReference
  2
LCDIM10
 10
0.0
 20
0.0
 30
0.0
  0
LINE
  5
564
102
{ACAD_REACTORS
330
5A5
102
}
330
1F
100
AcDbEntity
  8
LC-002-002-----0
 62
     7
370
    50
100
AcDbLine
 10
1599.907788
 20
2450.366197
 30
0.0
 11
1593.107224
 21
2450.366197
 31
0.0
  0
LINE
  5
565
102
{ACAD_REACTORS
330
5A5
102
}
330
1F
100
AcDbEntity
  8
LC-002-002-----0
 62
     7
370
    50
100
AcDbLine
 10
1659.907788
 20
2465.366197
 30
0.0
 11
1657.387182
 21
2501.412544
 31
0.0
  0
LINE
  5
566
102
{ACAD_REACTORS
330
5A5
102
}
330
1F
100
AcDbEntity
  8
LC-002-002-----0
 62
     7
370
    50
100
AcDbLine
 10
1599.907788
 20
2450.366197
 30
0.0
 11
1599.907788
 21
2465.366197
 31
0.0
  0
ARC
  5
567
102
{ACAD_REACTORS
330
5A5
102
}
330
1F
100
AcDbEntity
  8
LC-002-002-----0
 62
     7
370
    50
100
AcDbCircle
 10
1642.423721
 20
2500.366197
 30
0.0
 40
14.99999999999997
100
AcDbArc
 50
4.0
 51
19.471221
  0
ARC
  5
568
102
{ACAD_REACTORS
330
5A5
102
}
330
1F
100
AcDbEntity
  8
LC-002-002-----0
 62
     7
370
    50
100
AcDbCircle
 10
1593.107224
 20
2420.366197
 30
0.0
 40
30.0
100
AcDbArc
 50
90.0
 51
173.0
  0
LINE
  5
569
102
{ACAD_REACTORS
330
5A5
102
}
330
1F
100
AcDbEntity
  8
LC-002-002-----0
 62
     7
370
    50
100
AcDbLine
 10
1599.907788
 20
2465.366197
 30
0.0
 11
1659.907788
 21
2465.366197
 31
0.0
  0
LINE
  5
56A
102
{ACAD_REACTORS
330
5A5
102
}
330
1F
100
AcDbEntity
  8
LC-002-002-----0
 62
     7
370
    50
100
AcDbLine
 10
1527.980674
 20
2505.366197
 30
0.0
 11
1656.565857
 21
2505.366197
 31
0.0
  0
LINE
  5
56B
102
{ACAD_REACTORS
330
5A8
102
}
330
1F
100
AcDbEntity
  8
LC-002-002-----0
 62
     7
370
    50
100
AcDbLine
 10
1901.33081
 20
2645.366197
 30
0.0
 11
1545.170513
 21
2645.366197
 31
0.0
  0
LINE
  5
56C
102
{ACAD_REACTORS
330
5A8
102
}
330
1F
100
AcDbEntity
  8
LC-002-002-----0
 62
     7
370
    50
100
AcDbLine
 10
1545.170513
 20
2645.366197
 30
0.0
 11
1527.980674
 21
2505.366197
 31
0.0
  0
LINE
  5
56D
102
{ACAD_REACTORS
330
5A8
102
}
330
1F
100
AcDbEntity
  8
LC-002-002-----0
 62
     7
370
    50
100
AcDbLine
 10
1527.980674
 20
2505.366197
 30
0.0
 11
1883.81984
 21
2505.366197
 31
0.0
  0
LINE
  5
56E
102
{ACAD_REACTORS
330
5A8
102
}
330
1F
100
AcDbEntity
  8
LC-002-002-----0
 62
     7
370
    25
100
AcDbLine
 10
1916.55774
 20
2574.875517
 30
0.0
 11
1883.81984
 21
2505.366197
 31
0.0
  0
LINE
  5
56F
102
{ACAD_REACTORS
330
5A8
102
}
330
1F
100
AcDbEntity
  8
LC-002-002-----0
 62
     7
370
    25
100
AcDbLine
 10
1901.33081
 20
2645.366197
 30
0.0
 11
1916.55774
 21
2574.875517
 31
0.0
  0
LINE
  5
570
330
1F
100
AcDbEntity
  8
LC-002-002-----0
 62
     7
370
    50
100
AcDbLine
 10
1527.980674
 20
2505.366197
 30
0.0
 11
1499.252244
 21
2271.391905
 31
0.0
  0
LINE
  5
571
330
1F
100
AcDbEntity
  8
LC-002-002-----0
 62
     7
370
    50
100
AcDbLine
 10
1563.330839
 20
2424.022277
 30
0.0
 11
1543.816233
 21
2265.088562
 31
0.0
  0
INSERT
  5
586
330
1F
100
AcDbEntity
  8
LC-006-005-----0
 62
     7
370
    25
100
AcDbBlockReference
  2
*X229
 10
0.0
 20
0.0
 30
0.0
  0
INSERT
  5
598
330
1F
100
AcDbEntity
  8
LC-006-005-----0
 62
     7
370
    25
100
AcDbBlockReference
  2
*X330
 10
0.0
 20
0.0
 30
0.0
  0
LINE
  5
599
102
{ACAD_REACTORS
330
5A7
102
}
330
1F
100
AcDbEntity
  8
LC-008-003-MTH-0
 62
     7
370
    25
100
AcDbLine
 10
1527.980674
 20
2505.366197
 30
0.0
 11
1527.980674
 21
2715.0
 31
0.0
  0
LINE
  5
59A
102
{ACAD_REACTORS
330
5A7
102
}
330
1F
100
AcDbEntity
  8
LC-009-003-MTG-0
 62
     7
370
    25
100
AcDbLine
 10
1252.52633
 20
2700.0
 30
0.0
 11
1527.980674
 21
2700.0
 31
0.0
  0
LINE
  5
59B
102
{ACAD_REACTORS
330
5A7
102
}
330
1F
100
AcDbEntity
  8
LC-010-003-----0
 62
     7
370
    25
100
AcDbLine
 10
1503.194553
 20
2696.736845
 30
0.0
 11
1527.980674
 21
2700.0
 31
0.0
  0
LINE
  5
59C
102
{ACAD_REACTORS
330
5A7
102
}
330
1F
100
AcDbEntity
  8
LC-010-003-----0
 62
     7
370
    25
100
AcDbLine
 10
1527.980674
 20
2700.0
 30
0.0
 11
1503.194553
 21
2703.263155
 31
0.0
  0
LINE
  5
59D
102
{ACAD_REACTORS
330
5A7
102
}
330
1F
100
AcDbEntity
  8
LC-010-003-----0
 62
     7
370
    25
100
AcDbLine
 10
1503.194553
 20
2703.263155
 30
0.0
 11
1503.194553
 21
2696.736845
 31
0.0
  0
LINE
  5
59E
102
{ACAD_REACTORS
330
5A7
102
}
330
1F
100
AcDbEntity
  8
LC-010-003-----0
 62
     7
370
    25
100
AcDbLine
 10
1503.138944
 20
2697.585265
 30
0.0
 11
1521.480674
 21
2700.0
 31
0.0
  0
LINE
  5
59F
102
{ACAD_REACTORS
330
5A7
102
}
330
1F
100
AcDbEntity
  8
LC-010-003-----0
 62
     7
370
    25
100
AcDbLine
 10
1521.480674
 20
2700.0
 30
0.0
 11
1503.138944
 21
2702.414735
 31
0.0
  0
LINE
  5
5A0
102
{ACAD_REACTORS
330
5A7
102
}
330
1F
100
AcDbEntity
  8
LC-010-003-----0
 62
     7
370
    25
100
AcDbLine
 10
1503.083336
 20
2698.433686
 30
0.0
 11
1514.980674
 21
2700.0
 31
0.0
  0
LINE
  5
5A1
102
{ACAD_REACTORS
330
5A7
102
}
330
1F
100
AcDbEntity
  8
LC-010-003-----0
 62
     7
370
    25
100
AcDbLine
 10
1514.980674
 20
2700.0
 30
0.0
 11
1503.083336
 21
2701.566314
 31
0.0
  0
LINE
  5
5A2
102
{ACAD_REACTORS
330
5A7
102
}
330
1F
100
AcDbEntity
  8
LC-010-003-----0
 62
     7
370
    25
100
AcDbLine
 10
1503.027727
 20
2699.282106
 30
0.0
 11
1508.480674
 21
2700.0
 31
0.0
  0
LINE
  5
5A3
102
{ACAD_REACTORS
330
5A7
102
}
330
1F
100
AcDbEntity
  8
LC-010-003-----0
 62
     7
370
    25
100
AcDbLine
 10
1508.480674
 20
2700.0
 30
0.0
 11
1503.027727
 21
2700.717894
 31
0.0
  0
TEXT
  5
5A4
102
{ACAD_REACTORS
330
5A7
102
}
330
1F
100
AcDbEntity
  8
LC-010-003-----0
 62
     7
370
    25
100
AcDbText
 10
1349.219636
 20
2715.0
 30
0.0
 40
25.0
  1
12.79
 41
0.7
  7
LCTX0-400-0-0pDIN-Schrift
 72
     1
 11
1387.55297
 21
2715.0
 31
0.0
100
AcDbText
  0
ENDSEC
  0
SECTION
  2
OBJECTS
  0
DICTIONARY
  5
C
330
0
100
AcDbDictionary
281
     1
  3
ACAD_GROUP
350
D
  3
ACAD_LAYOUT
350
1A
  3
ACAD_MLINESTYLE
350
17
  3
ACAD_PLOTSETTINGS
350
19
  3
ACAD_PLOTSTYLENAME
350
E
  0
DICTIONARY
  5
D
102
{ACAD_REACTORS
330
C
102
}
330
C
100
AcDbDictionary
281
     1
  3
LCGROUP10
350
5A6
  3
LCGROUP111
350
5B0
  3
LCGROUP23
350
5A7
  3
LCGROUP259
350
5B4
  3
LCGROUP45
350
5AD
  3
LCGROUP50
350
5AF
  3
LCGROUP528
350
5B3
  3
LCGROUP571
350
5AC
  3
LCGROUP572
350
5AB
  3
LCGROUP574
350
5AA
  3
LCGROUP575
350
5A9
  3
LCGROUP577
350
5AE
  3
LCGROUP696
350
5B1
  3
LCGROUP697
350
5B2
  3
LCGROUP831
350
5A5
  3
LCGROUP832
350
5A8
  0
DICTIONARY
  5
1A
102
{ACAD_REACTORS
330
C
102
}
330
C
100
AcDbDictionary
281
     1
  3
Layout1
350
1E
  3
Layout2
350
26
  3
Model
350
22
  0
DICTIONARY
  5
17
102
{ACAD_REACTORS
330
C
102
}
330
C
100
AcDbDictionary
281
     1
  3
Standard
350
18
  0
DICTIONARY
  5
19
102
{ACAD_REACTORS
330
C
102
}
330
C
100
AcDbDictionary
281
     1
  0
ACDBDICTIONARYWDFLT
  5
E
102
{ACAD_REACTORS
330
C
102
}
330
C
100
AcDbDictionary
281
     1
  3
Normal
350
F
100
AcDbDictionaryWithDefault
340
F
  0
GROUP
  5
5A6
102
{ACAD_REACTORS
330
D
102
}
330
D
100
AcDbGroup
300
GRP10
 70
     1
 71
     1
340
105
340
106
340
107
340
108
340
109
340
10B
340
10C
340
10E
340
10F
340
110
340
111
340
112
340
113
340
114
340
115
340
116
340
117
340
118
340
119
340
11A
340
11B
340
11C
340
11D
340
11E
340
11F
340
120
340
121
340
122
340
123
  0
GROUP
  5
5B0
102
{ACAD_REACTORS
330
D
102
}
330
D
100
AcDbGroup
300
GRP111-LCMaster-LCGROUP259
 70
     1
 71
     1
340
141
340
142
340
143
340
147
340
14F
340
1FC
340
1FD
340
1FE
340
1FF
340
200
340
20D
  0
GROUP
  5
5A7
102
{ACAD_REACTORS
330
D
102
}
330
D
100
AcDbGroup
300
GRP23
 70
     1
 71
     1
340
599
340
59A
340
59B
340
59C
340
59D
340
59E
340
59F
340
5A0
340
5A1
340
5A2
340
5A3
340
5A4
  0
GROUP
  5
5B4
102
{ACAD_REACTORS
330
D
102
}
330
D
100
AcDbGroup
300
GRP259
 70
     1
 71
     1
340
179
340
17A
340
17B
340
17C
340
17D
340
17E
340
17F
340
180
340
181
340
182
340
183
340
184
340
185
340
186
340
187
340
188
340
189
340
18A
340
18B
340
18C
340
18D
340
18E
340
18F
340
190
340
191
340
192
340
193
340
194
340
195
340
196
340
197
340
198
340
199
340
19A
340
19B
340
19C
340
19D
340
19E
340
19F
340
1A0
340
1A1
340
1A2
340
1A3
340
1A4
340
1A5
340
1A6
340
1A7
340
1A8
340
1A9
340
1AA
340
1AB
340
1AC
340
1AD
340
1AE
340
1AF
340
1B0
340
1B1
340
1B2
340
1B3
340
1B4
340
1B5
340
1B6
340
1B7
340
1B8
340
1B9
340
1BA
340
1BB
340
1BC
340
1BD
340
1BE
340
1BF
340
1C0
340
1C1
340
1C2
340
1C3
340
1C4
340
1C5
340
1C6
340
1C7
340
1C8
340
1C9
340
1CA
340
1CB
340
1CC
340
1CD
340
1CE
340
1CF
340
1D0
340
1D1
340
1D2
340
1D3
340
1D4
340
1D5
340
1D6
340
1D7
  0
GROUP
  5
5AD
102
{ACAD_REACTORS
330
D
102
}
330
D
100
AcDbGroup
300
GRP45
 70
     1
 71
     1
340
472
340
473
340
474
340
475
340
476
340
477
340
478
340
479
340
47B
340
47C
  0
GROUP
  5
5AF
102
{ACAD_REACTORS
330
D
102
}
330
D
100
AcDbGroup
300
GRP50
 70
     1
 71
     1
340
124
340
125
340
126
340
127
340
128
340
129
340
12A
340
12B
340
12C
340
12D
340
12E
340
12F
340
130
340
131
340
132
340
133
340
134
340
135
340
136
340
137
340
138
340
139
340
13A
340
13B
340
13E
340
13F
340
140
340
144
340
145
340
146
340
148
340
149
340
14A
340
14B
340
14C
340
14D
340
14E
340
150
340
151
340
152
340
153
340
154
340
155
340
156
340
157
340
158
340
159
340
15A
340
15B
340
15C
340
15D
340
15E
340
15F
340
160
340
161
340
162
340
163
340
164
340
165
340
166
340
167
340
168
340
169
340
16A
340
16B
340
16C
340
16D
340
16E
340
16F
340
170
340
171
340
172
340
173
340
174
340
175
340
176
340
177
340
178
340
1D8
340
1D9
340
1DA
340
1DB
340
1DC
340
1DD
340
1DE
340
1DF
340
1E0
340
1E1
340
1E2
340
1E3
340
1E4
340
1E5
340
1E6
340
1E7
340
1E8
340
1E9
340
1EA
340
1EB
340
1EC
340
1ED
340
1EE
340
1EF
340
1F0
340
1F1
340
1F2
340
1F3
340
1F4
340
1F5
340
1F6
340
1F7
340
1F8
340
1F9
340
1FA
340
1FB
  0
GROUP
  5
5B3
102
{ACAD_REACTORS
330
D
102
}
330
D
100
AcDbGroup
300
GRP528-LCMaster-LCGROUP259
 70
     1
 71
     1
340
20E
340
20F
340
210
340
211
340
212
340
213
340
214
340
215
340
216
340
217
340
218
340
219
340
21A
340
21B
340
21C
340
21D
340
21E
340
21F
340
220
340
221
340
222
340
223
340
224
340
225
340
226
340
227
340
228
340
229
340
22A
340
22B
340
22C
340
22D
340
22E
340
22F
340
230
340
231
340
232
340
233
340
234
340
235
340
236
340
237
  0
GROUP
  5
5AC
102
{ACAD_REACTORS
330
D
102
}
330
D
100
AcDbGroup
300
GRP571-LCMaster-LCGROUP697
 70
     1
 71
     1
340
2E7
340
2ED
340
2F4
340
364
340
365
340
366
340
367
340
368
340
369
  0
GROUP
  5
5AB
102
{ACAD_REACTORS
330
D
102
}
330
D
100
AcDbGroup
300
GRP572-LCMaster-LCGROUP571
 70
     1
 71
     1
340
238
340
2E1
340
2E6
340
2E8
340
2E9
340
2EB
340
2EC
340
2EF
340
2F5
340
2F6
340
2F7
340
2F8
340
2F9
340
2FA
340
301
340
302
340
31D
340
327
340
339
340
36A
340
36B
340
36C
340
36D
340
36E
340
36F
340
370
340
371
340
46E
  0
GROUP
  5
5AA
102
{ACAD_REACTORS
330
D
102
}
330
D
100
AcDbGroup
300
GRP10-LCMaster-LCGROUP50
 70
     1
 71
     1
340
239
340
2C9
340
2CA
340
2CB
340
2CC
340
2CD
340
2CE
340
2CF
340
2D0
340
2D1
340
2D2
340
2D3
340
2D4
340
2D5
340
2D6
340
2D7
340
2D8
340
2D9
340
2DA
340
2DB
340
2DC
340
2DD
340
2DE
340
2DF
340
372
340
373
340
374
340
375
340
376
340
377
340
378
340
379
340
37A
340
37B
340
37C
340
37D
340
37E
340
37F
340
380
340
381
340
382
340
383
340
384
340
385
340
386
340
387
340
388
340
389
340
38A
340
38B
340
38C
340
38D
340
38E
340
38F
340
390
340
391
340
392
340
393
340
394
340
395
340
39F
340
3A9
340
3B3
340
3FF
340
409
340
413
340
41D
340
469
340
46A
340
46B
340
46C
340
46D
340
46F
340
470
  0
GROUP
  5
5A9
102
{ACAD_REACTORS
330
D
102
}
330
D
100
AcDbGroup
300
GRP575-LCMaster-LCGROUP574
 70
     1
 71
     1
340
248
340
249
340
24A
340
24C
340
24E
340
250
340
251
340
252
340
253
340
254
340
25D
340
25E
340
25F
340
260
340
261
340
262
340
263
340
264
340
265
340
266
340
267
340
27B
340
27C
340
27D
340
27E
340
27F
340
280
340
281
340
282
340
289
340
28A
340
28B
340
28C
340
28D
340
28E
340
28F
340
290
340
291
340
292
340
293
340
294
340
295
340
296
340
2A6
340
2A7
340
2B7
340
2B8
340
2C8
340
471
  0
GROUP
  5
5AE
102
{ACAD_REACTORS
330
D
102
}
330
D
100
AcDbGroup
300
GRP577-LCMaster-LCGROUP576
 70
     1
 71
     1
340
23A
340
23B
340
23C
340
23D
340
23E
340
23F
340
240
340
241
340
242
340
243
340
244
340
245
340
246
340
247
340
24B
340
24D
340
24F
340
255
340
256
340
257
340
258
340
259
340
25A
340
25B
340
25C
340
268
340
269
340
26A
340
26B
340
26C
340
26D
340
26E
340
26F
340
270
340
271
340
272
340
273
340
274
340
275
340
276
340
277
340
278
340
279
340
27A
340
287
340
288
  0
GROUP
  5
5B1
102
{ACAD_REACTORS
330
D
102
}
330
D
100
AcDbGroup
300
GRP696-LCMaster-LCGROUP574
 70
     1
 71
     1
340
2E0
340
2E2
340
2E3
340
2E5
340
2EA
340
2F0
340
2F1
340
303
340
304
340
305
340
363
  0
GROUP
  5
5B2
102
{ACAD_REACTORS
330
D
102
}
330
D
100
AcDbGroup
300
GRP697-LCMaster-LCGROUP696
 70
     1
 71
     1
340
2E4
340
2EE
340
2F2
340
2F3
340
2FB
340
2FC
340
2FD
340
2FE
340
2FF
340
300
  0
GROUP
  5
5A5
102
{ACAD_REACTORS
330
D
102
}
330
D
100
AcDbGroup
300
Gruppe 831
 70
     1
 71
     1
340
564
340
565
340
566
340
567
340
568
340
569
340
56A
  0
GROUP
  5
5A8
102
{ACAD_REACTORS
330
D
102
}
330
D
100
AcDbGroup
300
Gruppe 832-LCMaster-LCGROUP831
 70
     1
 71
     1
340
56B
340
56C
340
56D
340
56E
340
56F
  0
LAYOUT
  5
1E
102
{ACAD_REACTORS
330
1A
102
}
330
1A
100
AcDbPlotSettings
  1

  2

  4

  6

 40
0.0
 41
0.0
 42
0.0
 43
0.0
 44
0.0
 45
0.0
 46
0.0
 47
0.0
 48
0.0
 49
0.0
140
0.0
141
0.0
142
1.0
143
1.0
 70
   688
 72
     0
 73
     0
 74
     5
  7

 75
    16
147
1.0
148
0.0
149
0.0
100
AcDbLayout
  1
Layout1
 70
     1
 71
     1
 10
0.0
 20
0.0
 11
2100.0
 21
2970.0
 12
0.0
 22
0.0
 32
0.0
 14
0.0
 24
0.0
 34
0.0
 15
2100.0
 25
2970.0
 35
0.0
146
0.0
 13
0.0
 23
0.0
 33
0.0
 16
1.0
 26
0.0
 36
0.0
 17
0.0
 27
1.0
 37
0.0
 76
     0
330
1B
  0
LAYOUT
  5
26
102
{ACAD_REACTORS
330
1A
102
}
330
1A
100
AcDbPlotSettings
  1

  2

  4

  6

 40
0.0
 41
0.0
 42
0.0
 43
0.0
 44
0.0
 45
0.0
 46
0.0
 47
0.0
 48
0.0
 49
0.0
140
0.0
141
0.0
142
1.0
143
1.0
 70
   688
 72
     0
 73
     0
 74
     5
  7

 75
    16
147
1.0
148
0.0
149
0.0
100
AcDbLayout
  1
Layout2
 70
     1
 71
     2
 10
0.0
 20
0.0
 11
0.0
 21
0.0
 12
0.0
 22
0.0
 32
0.0
 14
0.0
 24
0.0
 34
0.0
 15
0.0
 25
0.0
 35
0.0
146
0.0
 13
0.0
 23
0.0
 33
0.0
 16
1.0
 26
0.0
 36
0.0
 17
0.0
 27
1.0
 37
0.0
 76
     0
330
23
  0
LAYOUT
  5
22
102
{ACAD_REACTORS
330
1A
102
}
330
1A
100
AcDbPlotSettings
  1

  2

  4

  6

 40
0.0
 41
0.0
 42
0.0
 43
0.0
 44
0.0
 45
0.0
 46
0.0
 47
0.0
 48
0.0
 49
0.0
140
0.0
141
0.0
142
1.0
143
1.0
 70
  1776
 72
     0
 73
     0
 74
     0
  7

 75
     0
147
1.0
148
0.0
149
0.0
100
AcDbLayout
  1
Model
 70
     1
 71
     0
 10
0.0
 20
0.0
 11
2100.0
 21
2970.0
 12
0.0
 22
0.0
 32
0.0
 14
0.0
 24
0.0
 34
0.0
 15
2100.0
 25
2970.0
 35
0.0
146
0.0
 13
0.0
 23
0.0
 33
0.0
 16
1.0
 26
0.0
 36
0.0
 17
0.0
 27
1.0
 37
0.0
 76
     0
330
1F
  0
MLINESTYLE
  5
18
102
{ACAD_REACTORS
330
17
102
}
330
17
100
AcDbMlineStyle
  2
Standard
 70
     0
  3

 62
   256
 51
90.0
 52
90.0
 71
     2
 49
0.5
 62
   256
  6
BYLAYER
 49
-0.5
 62
   256
  6
BYLAYER
  0
ACDBPLACEHOLDER
  5
F
102
{ACAD_REACTORS
330
E
102
}
330
E
  0
ENDSEC
  0
EOF
