  0
SECTION
  2
HEADER
  9
$ACADVER
  1
AC1015
  9
$ACADMAINTVER
 70
     6
  9
$DWGCODEPAGE
  3
ANSI_1252
  9
$INSBASE
 10
0.0
 20
0.0
 30
0.0
  9
$EXTMIN
 10
0.0
 20
0.0
 30
0.0
  9
$EXTMAX
 10
2100.0
 20
2970.0
 30
0.0
  9
$LIMMIN
 10
0.0
 20
0.0
  9
$LIMMAX
 10
2100.0
 20
2970.0
  9
$ORTHOMODE
 70
     0
  9
$REGENMODE
 70
     1
  9
$FILLMODE
 70
     1
  9
$QTEXTMODE
 70
     0
  9
$MIRRTEXT
 70
     1
  9
$LTSCALE
 40
10.0
  9
$ATTMODE
 70
     1
  9
$TEXTSIZE
 40
2.5
  9
$TRACEWID
 40
1.0
  9
$TEXTSTYLE
  7
Standard
  9
$CLAYER
  8
0
  9
$CELTYPE
  6
ByLayer
  9
$CECOLOR
 62
     7
  9
$CELTSCALE
 40
1.0
  9
$DISPSILH
 70
     0
  9
$DIMSCALE
 40
10.0
  9
$DIMASZ
 40
3.5
  9
$DIMEXO
 40
0.625
  9
$DIMDLI
 40
3.75
  9
$DIMRND
 40
0.0
  9
$DIMDLE
 40
0.0
  9
$DIMEXE
 40
1.25
  9
$DIMTP
 40
0.0
  9
$DIMTM
 40
0.0
  9
$DIMTXT
 40
3.5
  9
$DIMCEN
 40
2.5
  9
$DIMTSZ
 40
0.0
  9
$DIMTOL
 70
     0
  9
$DIMLIM
 70
     0
  9
$DIMTIH
 70
     0
  9
$DIMTOH
 70
     0
  9
$DIMSE1
 70
     0
  9
$DIMSE2
 70
     0
  9
$DIMTAD
 70
     1
  9
$DIMZIN
 70
     8
  9
$DIMBLK
  1

  9
$DIMASO
 70
     1
  9
$DIMSHO
 70
     1
  9
$DIMPOST
  1

  9
$DIMAPOST
  1

  9
$DIMALT
 70
     0
  9
$DIMALTD
 70
     3
  9
$DIMALTF
 40
0.03937
  9
$DIMLFAC
 40
1.0
  9
$DIMTOFL
 70
     1
  9
$DIMTVP
 40
0.0
  9
$DIMTIX
 70
     0
  9
$DIMSOXD
 70
     0
  9
$DIMSAH
 70
     0
  9
$DIMBLK1
  1

  9
$DIMBLK2
  1

  9
$DIMSTYLE
  2
ISO-25
  9
$DIMCLRD
 70
     0
  9
$DIMCLRE
 70
     0
  9
$DIMCLRT
 70
     0
  9
$DIMTFAC
 40
1.0
  9
$DIMGAP
 40
0.625
  9
$DIMJUST
 70
     0
  9
$DIMSD1
 70
     0
  9
$DIMSD2
 70
     0
  9
$DIMTOLJ
 70
     0
  9
$DIMTZIN
 70
     8
  9
$DIMALTZ
 70
     0
  9
$DIMALTTZ
 70
     0
  9
$DIMUPT
 70
     0
  9
$DIMDEC
 70
     2
  9
$DIMTDEC
 70
     2
  9
$DIMALTU
 70
     2
  9
$DIMALTTD
 70
     3
  9
$DIMTXSTY
  7
Standard
  9
$DIMAUNIT
 70
     0
  9
$DIMADEC
 70
     0
  9
$DIMALTRND
 40
0.0
  9
$DIMAZIN
 70
     0
  9
$DIMDSEP
 70
    44
  9
$DIMATFIT
 70
     3
  9
$DIMFRAC
 70
     0
  9
$DIMLDRBLK
  1

  9
$DIMLUNIT
 70
     2
  9
$DIMLWD
 70
    -2
  9
$DIMLWE
 70
    -2
  9
$DIMTMOVE
 70
     0
  9
$LUNITS
 70
     2
  9
$LUPREC
 70
     4
  9
$SKETCHINC
 40
1.0
  9
$FILLETRAD
 40
10.0
  9
$AUNITS
 70
     0
  9
$AUPREC
 70
     0
  9
$MENU
  1
.
  9
$ELEVATION
 40
0.0
  9
$PELEVATION
 40
0.0
  9
$THICKNESS
 40
0.0
  9
$LIMCHECK
 70
     0
  9
$CHAMFERA
 40
10.0
  9
$CHAMFERB
 40
10.0
  9
$CHAMFERC
 40
20.0
  9
$CHAMFERD
 40
0.0
  9
$SKPOLY
 70
     0
  9
$TDCREATE
 40
2454897.675152673
  9
$TDUCREATE
 40
2454897.633486007
  9
$TDUPDATE
 40
2454897.675152685
  9
$TDUUPDATE
 40
2454897.633486019
  9
$TDINDWG
 40
0.0000000116
  9
$TDUSRTIMER
 40
0.0000000116
  9
$USRTIMER
 70
     1
  9
$ANGBASE
 50
0.0
  9
$ANGDIR
 70
     0
  9
$PDMODE
 70
     0
  9
$PDSIZE
 40
0.0
  9
$PLINEWID
 40
0.0
  9
$SPLFRAME
 70
     0
  9
$SPLINETYPE
 70
     6
  9
$SPLINESEGS
 70
     8
  9
$HANDSEED
  5
5A6
  9
$SURFTAB1
 70
     6
  9
$SURFTAB2
 70
     6
  9
$SURFTYPE
 70
     6
  9
$SURFU
 70
     6
  9
$SURFV
 70
     6
  9
$UCSBASE
  2

  9
$UCSNAME
  2

  9
$UCSORG
 10
0.0
 20
0.0
 30
0.0
  9
$UCSXDIR
 10
1.0
 20
0.0
 30
0.0
  9
$UCSYDIR
 10
0.0
 20
1.0
 30
0.0
  9
$UCSORTHOREF
  2

  9
$UCSORTHOVIEW
 70
     0
  9
$UCSORGTOP
 10
0.0
 20
0.0
 30
0.0
  9
$UCSORGBOTTOM
 10
0.0
 20
0.0
 30
0.0
  9
$UCSORGLEFT
 10
0.0
 20
0.0
 30
0.0
  9
$UCSORGRIGHT
 10
0.0
 20
0.0
 30
0.0
  9
$UCSORGFRONT
 10
0.0
 20
0.0
 30
0.0
  9
$UCSORGBACK
 10
0.0
 20
0.0
 30
0.0
  9
$PUCSBASE
  2

  9
$PUCSNAME
  2

  9
$PUCSORG
 10
0.0
 20
0.0
 30
0.0
  9
$PUCSXDIR
 10
1.0
 20
0.0
 30
0.0
  9
$PUCSYDIR
 10
0.0
 20
1.0
 30
0.0
  9
$PUCSORTHOREF
  2

  9
$PUCSORTHOVIEW
 70
     0
  9
$PUCSORGTOP
 10
0.0
 20
0.0
 30
0.0
  9
$PUCSORGBOTTOM
 10
0.0
 20
0.0
 30
0.0
  9
$PUCSORGLEFT
 10
0.0
 20
0.0
 30
0.0
  9
$PUCSORGRIGHT
 10
0.0
 20
0.0
 30
0.0
  9
$PUCSORGFRONT
 10
0.0
 20
0.0
 30
0.0
  9
$PUCSORGBACK
 10
0.0
 20
0.0
 30
0.0
  9
$USERI1
 70
     0
  9
$USERI2
 70
     0
  9
$USERI3
 70
     0
  9
$USERI4
 70
     0
  9
$USERI5
 70
     0
  9
$USERR1
 40
0.0
  9
$USERR2
 40
0.0
  9
$USERR3
 40
0.0
  9
$USERR4
 40
0.0
  9
$USERR5
 40
0.0
  9
$WORLDVIEW
 70
     1
  9
$SHADEDGE
 70
     3
  9
$SHADEDIF
 70
    70
  9
$TILEMODE
 70
     1
  9
$MAXACTVP
 70
    64
  9
$PINSBASE
 10
0.0
 20
0.0
 30
0.0
  9
$PLIMCHECK
 70
     0
  9
$PEXTMIN
 10
0.0
 20
0.0
 30
0.0
  9
$PEXTMAX
 10
2100.0
 20
2970.0
 30
0.0
  9
$PLIMMIN
 10
0.0
 20
0.0
  9
$PLIMMAX
 10
2100.0
 20
2970.0
  9
$UNITMODE
 70
     0
  9
$VISRETAIN
 70
     1
  9
$PLINEGEN
 70
     0
  9
$PSLTSCALE
 70
     1
  9
$TREEDEPTH
 70
  3020
  9
$CMLSTYLE
  2
Standard
  9
$CMLJUST
 70
     0
  9
$CMLSCALE
 40
20.0
  9
$PROXYGRAPHICS
 70
     1
  9
$MEASUREMENT
 70
     1
  9
$CELWEIGHT
370
    -1
  9
$ENDCAPS
280
     0
  9
$JOINSTYLE
280
     0
  9
$LWDISPLAY
290
     0
  9
$INSUNITS
 70
     4
  9
$HYPERLINKBASE
  1

  9
$STYLESHEET
  1

  9
$XEDIT
290
     1
  9
$CEPSNTYPE
380
     0
  9
$PSTYLEMODE
290
     1
  9
$FINGERPRINTGUID
  2
{FAEB1C30-E019-11D5-929B-00C0DF256EC4}
  9
$VERSIONGUID
  2
{FAEB1C32-E019-11D5-929B-00C0DF256EC4}
  9
$EXTNAMES
290
     1
  9
$PSVPSCALE
 40
0.0
  9
$OLESTARTUP
290
     0
  0
ENDSEC
  0
SECTION
  2
CLASSES
  0
CLASS
  1
ACDBDICTIONARYWDFLT
  2
AcDbDictionaryWithDefault
  3
ObjectDBX Classes
 90
        0
280
     0
281
     0
  0
CLASS
  1
ACDBPLACEHOLDER
  2
AcDbPlaceHolder
  3
ObjectDBX Classes
 90
        0
280
     0
281
     0
  0
CLASS
  1
LAYOUT
  2
AcDbLayout
  3
ObjectDBX Classes
 90
        0
280
     0
281
     0
  0
ENDSEC
  0
SECTION
  2
TABLES
  0
TABLE
  2
VPORT
  5
8
330
0
100
AcDbSymbolTable
 70
     2
  0
VPORT
  5
29
330
8
100
AcDbSymbolTableRecord
100
AcDbViewportTableRecord
  2
*ACTIVE
 70
     0
 10
0.0
 20
0.0
 11
1.0
 21
1.0
 12
1050.0
 22
1485.0
 13
0.0
 23
0.0
 14
1.0
 24
1.0
 15
0.0
 25
0.0
 16
0.0
 26
0.0
 36
1.0
 17
0.0
 27
0.0
 37
0.0
 40
2970.0
 41
0.707071
 42
50.0
 43
0.0
 44
0.0
 50
0.0
 51
0.0
 71
    16
 72
   100
 73
     1
 74
     0
 75
     0
 76
     0
 77
     0
 78
     0
281
     0
 65
     0
110
0.0
120
0.0
130
0.0
111
1.0
121
0.0
131
0.0
112
0.0
122
1.0
132
0.0
 79
     0
146
0.0
  0
ENDTAB
  0
TABLE
  2
LTYPE
  5
5
330
0
100
AcDbSymbolTable
 70
     3
  0
LTYPE
  5
14
330
5
100
AcDbSymbolTableRecord
100
AcDbLinetypeTableRecord
  2
ByBlock
 70
     0
  3

 72
    65
 73
     0
 40
0.0
  0
LTYPE
  5
15
330
5
100
AcDbSymbolTableRecord
100
AcDbLinetypeTableRecord
  2
ByLayer
 70
     0
  3

 72
    65
 73
     0
 40
0.0
  0
LTYPE
  5
16
330
5
100
AcDbSymbolTableRecord
100
AcDbLinetypeTableRecord
  2
Continuous
 70
     0
  3
Solid line
 72
    65
 73
     0
 40
0.0
  0
LTYPE
  5
2A
330
5
100
AcDbSymbolTableRecord
100
AcDbLinetypeTableRecord
  2
DASHED
 70
     0
  3
__ __ __ __ __
 72
    65
 73
     2
 40
6.25
 49
5.0
 74
     4
 75
     0
340
0
 46
1.0
 50
0.0
 44
0.0
 45
0.0
 49
-1.25
 74
     4
 75
     0
340
0
 46
1.0
 50
0.0
 44
0.0
 45
0.0
  0
LTYPE
  5
118
330
5
100
AcDbSymbolTableRecord
100
AcDbLinetypeTableRecord
  2
CENTER
 70
     0
  3
__ . __ . __ . __ . __
 72
    65
 73
     4
 40
7.5
 49
5.0
 74
     4
 75
     0
340
0
 46
1.0
 50
0.0
 44
0.0
 45
0.0
 49
-1.25
 74
     4
 75
     0
340
0
 46
1.0
 50
0.0
 44
0.0
 45
0.0
 49
0.0
 74
     4
 75
     0
340
0
 46
1.0
 50
0.0
 44
0.0
 45
0.0
 49
-1.25
 74
     4
 75
     0
340
0
 46
1.0
 50
0.0
 44
0.0
 45
0.0
  0
ENDTAB
  0
TABLE
  2
LAYER
  5
2
330
0
100
AcDbSymbolTable
 70
    16
  0
LAYER
  5
10
330
2
100
AcDbSymbolTableRecord
100
AcDbLayerTableRecord
  2
0
 70
     0
 62
     7
  6
Continuous
370
    -3
390
F
  0
LAYER
  5
2B
330
2
100
AcDbSymbolTableRecord
100
AcDbLayerTableRecord
  2
LC-INFO-1-10-mm-A4H-0
 70
     1
 62
     7
  6
ByBlock
370
    -3
390
F
  0
LAYER
  5
2C
330
2
100
AcDbSymbolTableRecord
100
AcDbLayerTableRecord
  2
LC-CUT-HIDDEN
 70
     0
 62
     7
  6
DASHED
370
    -3
390
F
  0
LAYER
  5
2D
330
2
100
AcDbSymbolTableRecord
100
AcDbLayerTableRecord
  2
LC-VIEWPORT
 70
     0
 62
     7
  6
ByBlock
370
    -3
390
F
  0
LAYER
  5
2E
330
2
100
AcDbSymbolTableRecord
100
AcDbLayerTableRecord
  2
LC-3D-HIDDEN
 70
     0
 62
     9
  6
DASHED
370
    -3
390
F
  0
LAYER
  5
33
330
2
100
AcDbSymbolTableRecord
100
AcDbLayerTableRecord
  2
LC-001-111-----0
 70
     0
 62
   253
  6
ByBlock
370
    -3
390
F
  0
LAYER
  5
A1
330
2
100
AcDbSymbolTableRecord
100
AcDbLayerTableRecord
  2
LC-002-002-----0
 70
     0
 62
     1
  6
ByBlock
370
    -3
390
F
  0
LAYER
  5
102
330
2
100
AcDbSymbolTableRecord
100
AcDbLayerTableRecord
  2
LC-003-230-ZVN-0
 70
     0
 62
     2
  6
ByBlock
370
    -3
390
F
  0
LAYER
  5
119
330
2
100
AcDbSymbolTableRecord
100
AcDbLayerTableRecord
  2
LC-004-006-MLN-0
 70
     0
 62
     2
  6
CENTER
370
    -3
390
F
  0
LAYER
  5
120
330
2
100
AcDbSymbolTableRecord
100
AcDbLayerTableRecord
  2
LC-005-002-RND-0
 70
     0
 62
     2
  6
ByBlock
370
    -3
390
F
  0
LAYER
  5
238
330
2
100
AcDbSymbolTableRecord
100
AcDbLayerTableRecord
  2
LC-006-100-D00-0
 70
     0
 62
     6
  6
ByBlock
370
    -3
390
F
  0
LAYER
  5
313
330
2
100
AcDbSymbolTableRecord
100
AcDbLayerTableRecord
  2
LC-007-005-----0
 70
     0
 62
     2
  6
ByBlock
370
    -3
390
F
  0
LAYER
  5
41B
330
2
100
AcDbSymbolTableRecord
100
AcDbLayerTableRecord
  2
LC-008-004-----0
 70
     0
 62
     7
  6
ByBlock
370
    -3
390
F
  0
LAYER
  5
420
330
2
100
AcDbSymbolTableRecord
100
AcDbLayerTableRecord
  2
LC-009-003-MTH-0
 70
     0
 62
     2
  6
ByBlock
370
    -3
390
F
  0
LAYER
  5
423
330
2
100
AcDbSymbolTableRecord
100
AcDbLayerTableRecord
  2
LC-010-003-MTG-0
 70
     0
 62
     2
  6
ByBlock
370
    -3
390
F
  0
LAYER
  5
425
330
2
100
AcDbSymbolTableRecord
100
AcDbLayerTableRecord
  2
LC-011-003-----0
 70
     0
 62
     2
  6
ByBlock
370
    -3
390
F
  0
ENDTAB
  0
TABLE
  2
STYLE
  5
3
330
0
100
AcDbSymbolTable
 70
     2
  0
STYLE
  5
11
330
3
100
AcDbSymbolTableRecord
100
AcDbTextStyleTableRecord
  2
Standard
 70
     0
 40
0.0
 41
1.0
 50
0.0
 71
     0
 42
2.5
  3
txt
  4

  0
STYLE
  5
2F
330
3
100
AcDbSymbolTableRecord
100
AcDbTextStyleTableRecord
  2
LCTX0-400-0-0pDIN-Schrift
 70
     0
 40
0.0
 41
0.8
 50
0.0
 71
     0
 42
3.5
  3
TXT
  4

  0
ENDTAB
  0
TABLE
  2
VIEW
  5
6
330
0
100
AcDbSymbolTable
 70
     0
  0
ENDTAB
  0
TABLE
  2
UCS
  5
7
330
0
100
AcDbSymbolTable
 70
     0
  0
ENDTAB
  0
TABLE
  2
APPID
  5
9
330
0
100
AcDbSymbolTable
 70
     1
  0
APPID
  5
12
330
9
100
AcDbSymbolTableRecord
100
AcDbRegAppTableRecord
  2
ACAD
 70
     0
  0
ENDTAB
  0
TABLE
  2
DIMSTYLE
  5
A
330
0
100
AcDbSymbolTable
 70
     1
100
AcDbDimStyleTable
  0
DIMSTYLE
105
27
330
A
100
AcDbSymbolTableRecord
100
AcDbDimStyleTableRecord
  2
ISO-25
 70
     0
 41
2.5
 42
0.625
 43
3.75
 44
1.25
 73
     0
 74
     0
 77
     1
 78
     8
140
2.5
141
2.5
143
0.03937
147
0.625
171
     3
172
     1
271
     2
272
     2
274
     3
278
    44
283
     0
284
     8
340
11
  0
ENDTAB
  0
TABLE
  2
BLOCK_RECORD
  5
1
330
0
100
AcDbSymbolTable
 70
    28
  0
BLOCK_RECORD
  5
1F
330
1
100
AcDbSymbolTableRecord
100
AcDbBlockTableRecord
  2
*Model_Space
340
22
  0
BLOCK_RECORD
  5
1B
330
1
100
AcDbSymbolTableRecord
100
AcDbBlockTableRecord
  2
*Paper_Space
340
1E
  0
BLOCK_RECORD
  5
23
330
1
100
AcDbSymbolTableRecord
100
AcDbBlockTableRecord
  2
*Paper_Space0
340
26
  0
BLOCK_RECORD
  5
30
330
1
100
AcDbSymbolTableRecord
100
AcDbBlockTableRecord
  2
SYM1
340
0
102
{BLKREFS
331
103
102
}
  0
BLOCK_RECORD
  5
235
330
1
100
AcDbSymbolTableRecord
100
AcDbBlockTableRecord
  2
POLY1
340
0
102
{BLKREFS
331
23F
102
}
  0
BLOCK_RECORD
  5
276
330
1
100
AcDbSymbolTableRecord
100
AcDbBlockTableRecord
  2
POLY2
340
0
102
{BLKREFS
331
285
102
}
  0
BLOCK_RECORD
  5
286
330
1
100
AcDbSymbolTableRecord
100
AcDbBlockTableRecord
  2
POLY3
340
0
102
{BLKREFS
331
295
102
}
  0
BLOCK_RECORD
  5
297
330
1
100
AcDbSymbolTableRecord
100
AcDbBlockTableRecord
  2
POLY4
340
0
102
{BLKREFS
331
2A6
102
}
  0
BLOCK_RECORD
  5
310
330
1
100
AcDbSymbolTableRecord
100
AcDbBlockTableRecord
  2
*X16
340
0
102
{BLKREFS
331
31A
102
}
  0
BLOCK_RECORD
  5
368
330
1
100
AcDbSymbolTableRecord
100
AcDbBlockTableRecord
  2
POLY5
340
0
102
{BLKREFS
331
377
102
}
  0
BLOCK_RECORD
  5
379
330
1
100
AcDbSymbolTableRecord
100
AcDbBlockTableRecord
  2
POLY6
340
0
102
{BLKREFS
331
388
102
}
  0
BLOCK_RECORD
  5
38A
330
1
100
AcDbSymbolTableRecord
100
AcDbBlockTableRecord
  2
POLY7
340
0
102
{BLKREFS
331
399
102
}
  0
BLOCK_RECORD
  5
3AD
330
1
100
AcDbSymbolTableRecord
100
AcDbBlockTableRecord
  2
POLY8
340
0
102
{BLKREFS
331
3BC
102
}
  0
BLOCK_RECORD
  5
3BE
330
1
100
AcDbSymbolTableRecord
100
AcDbBlockTableRecord
  2
POLY9
340
0
102
{BLKREFS
331
3CD
102
}
  0
BLOCK_RECORD
  5
3CF
330
1
100
AcDbSymbolTableRecord
100
AcDbBlockTableRecord
  2
POLY10
340
0
102
{BLKREFS
331
3DE
102
}
  0
BLOCK_RECORD
  5
41D
330
1
100
AcDbSymbolTableRecord
100
AcDbBlockTableRecord
  2
LCDIM1
340
0
102
{BLKREFS
331
439
102
}
  0
BLOCK_RECORD
  5
43A
330
1
100
AcDbSymbolTableRecord
100
AcDbBlockTableRecord
  2
LCDIM2
340
0
102
{BLKREFS
331
453
102
}
  0
BLOCK_RECORD
  5
454
330
1
100
AcDbSymbolTableRecord
100
AcDbBlockTableRecord
  2
LCDIM3
340
0
102
{BLKREFS
331
46D
102
}
  0
BLOCK_RECORD
  5
46E
330
1
100
AcDbSymbolTableRecord
100
AcDbBlockTableRecord
  2
LCDIM4
340
0
102
{BLKREFS
331
487
102
}
  0
BLOCK_RECORD
  5
488
330
1
100
AcDbSymbolTableRecord
100
AcDbBlockTableRecord
  2
LCDIM5
340
0
102
{BLKREFS
331
4A1
102
}
  0
BLOCK_RECORD
  5
4A2
330
1
100
AcDbSymbolTableRecord
100
AcDbBlockTableRecord
  2
LCDIM6
340
0
102
{BLKREFS
331
4BB
102
}
  0
BLOCK_RECORD
  5
4BC
330
1
100
AcDbSymbolTableRecord
100
AcDbBlockTableRecord
  2
LCDIM7
340
0
102
{BLKREFS
331
4D5
102
}
  0
BLOCK_RECORD
  5
4D6
330
1
100
AcDbSymbolTableRecord
100
AcDbBlockTableRecord
  2
LCDIM8
340
0
102
{BLKREFS
331
4EF
102
}
  0
BLOCK_RECORD
  5
4F0
330
1
100
AcDbSymbolTableRecord
100
AcDbBlockTableRecord
  2
LCDIM9
340
0
102
{BLKREFS
331
509
102
}
  0
BLOCK_RECORD
  5
50A
330
1
100
AcDbSymbolTableRecord
100
AcDbBlockTableRecord
  2
LCDIM10
340
0
102
{BLKREFS
331
523
102
}
  0
BLOCK_RECORD
  5
524
330
1
100
AcDbSymbolTableRecord
100
AcDbBlockTableRecord
  2
LCDIM11
340
0
102
{BLKREFS
331
53D
102
}
  0
BLOCK_RECORD
  5
53E
330
1
100
AcDbSymbolTableRecord
100
AcDbBlockTableRecord
  2
LCDIM12
340
0
102
{BLKREFS
331
557
102
}
  0
BLOCK_RECORD
  5
558
330
1
100
AcDbSymbolTableRecord
100
AcDbBlockTableRecord
  2
LCDIM13
340
0
102
{BLKREFS
331
571
102
}
  0
BLOCK_RECORD
  5
572
330
1
100
AcDbSymbolTableRecord
100
AcDbBlockTableRecord
  2
LCDIM14
340
0
102
{BLKREFS
331
58B
102
}
  0
BLOCK_RECORD
  5
58C
330
1
100
AcDbSymbolTableRecord
100
AcDbBlockTableRecord
  2
LCDIM15
340
0
102
{BLKREFS
331
59A
102
}
  0
ENDTAB
  0
ENDSEC
  0
SECTION
  2
BLOCKS
  0
BLOCK
  5
20
330
1F
100
AcDbEntity
  8
0
100
AcDbBlockBegin
  2
*Model_Space
 70
     0
 71
     0
 10
0.0
 20
0.0
 30
0.0
  3
*Model_Space
  1

  0
ENDBLK
  5
21
330
1F
100
AcDbEntity
  8
0
100
AcDbBlockEnd
  0
BLOCK
  5
1C
330
1B
100
AcDbEntity
 67
     1
  8
0
100
AcDbBlockBegin
  2
*Paper_Space
 70
     0
 71
     0
 10
0.0
 20
0.0
 30
0.0
  3
*Paper_Space
  1

  0
ENDBLK
  5
1D
330
1B
100
AcDbEntity
 67
     1
  8
0
100
AcDbBlockEnd
  0
BLOCK
  5
24
330
23
100
AcDbEntity
  8
0
100
AcDbBlockBegin
  2
*Paper_Space0
 70
     0
 71
     0
 10
0.0
 20
0.0
 30
0.0
  3
*Paper_Space0
  1

  0
ENDBLK
  5
25
330
23
100
AcDbEntity
  8
0
100
AcDbBlockEnd
  0
BLOCK
  5
31
330
30
100
AcDbEntity
  8
0
100
AcDbBlockBegin
  2
SYM1
 70
     0
 71
     0
 10
0.0
 20
0.0
 30
0.0
  3
SYM1
  1

  4
SYM1
  0
LINE
  5
34
330
30
100
AcDbEntity
  8
LC-001-111-----0
 62
   253
370
    50
100
AcDbLine
 10
2050.0
 20
50.0
 30
0.0
 11
2050.0
 21
2920.0
 31
0.0
  0
LINE
  5
35
330
30
100
AcDbEntity
  8
LC-001-111-----0
 62
   253
370
    25
100
AcDbLine
 10
178.0
 20
220.0
 30
0.0
 11
724.0
 21
220.0
 31
0.0
  0
LINE
  5
36
330
30
100
AcDbEntity
  8
LC-001-111-----0
 62
   253
370
    35
100
AcDbLine
 10
724.0
 20
220.0
 30
0.0
 11
2050.0
 21
220.0
 31
0.0
  0
LINE
  5
37
330
30
100
AcDbEntity
  8
LC-001-111-----0
 62
   253
370
    50
100
AcDbLine
 10
178.0
 20
602.5
 30
0.0
 11
2050.0
 21
602.5
 31
0.0
  0
LINE
  5
38
330
30
100
AcDbEntity
  8
LC-001-111-----0
 62
   253
370
    25
100
AcDbLine
 10
178.0
 20
92.5
 30
0.0
 11
2050.0
 21
92.5
 31
0.0
  0
LINE
  5
39
330
30
100
AcDbEntity
  8
LC-001-111-----0
 62
   253
370
    25
100
AcDbLine
 10
178.0
 20
135.0
 30
0.0
 11
724.0
 21
135.0
 31
0.0
  0
LINE
  5
3A
330
30
100
AcDbEntity
  8
LC-001-111-----0
 62
   253
370
    25
100
AcDbLine
 10
178.0
 20
177.5
 30
0.0
 11
724.0
 21
177.5
 31
0.0
  0
LINE
  5
3B
330
30
100
AcDbEntity
  8
LC-001-111-----0
 62
   253
370
    25
100
AcDbLine
 10
178.0
 20
262.5
 30
0.0
 11
1166.0
 21
262.5
 31
0.0
  0
LINE
  5
3C
330
30
100
AcDbEntity
  8
LC-001-111-----0
 62
   253
370
    25
100
AcDbLine
 10
178.0
 20
305.0
 30
0.0
 11
1166.0
 21
305.0
 31
0.0
  0
LINE
  5
3D
330
30
100
AcDbEntity
  8
LC-001-111-----0
 62
   253
370
    25
100
AcDbLine
 10
178.0
 20
347.5
 30
0.0
 11
1166.0
 21
347.5
 31
0.0
  0
LINE
  5
3E
330
30
100
AcDbEntity
  8
LC-001-111-----0
 62
   253
370
    25
100
AcDbLine
 10
178.0
 20
390.0
 30
0.0
 11
1166.0
 21
390.0
 31
0.0
  0
LINE
  5
3F
330
30
100
AcDbEntity
  8
LC-001-111-----0
 62
   253
370
    35
100
AcDbLine
 10
178.0
 20
432.5
 30
0.0
 11
2050.0
 21
432.5
 31
0.0
  0
LINE
  5
40
330
30
100
AcDbEntity
  8
LC-001-111-----0
 62
   253
370
    25
100
AcDbLine
 10
828.0
 20
262.5
 30
0.0
 11
828.0
 21
432.5
 31
0.0
  0
LINE
  5
41
330
30
100
AcDbEntity
  8
LC-001-111-----0
 62
   253
370
    35
100
AcDbLine
 10
1920.0
 20
92.5
 30
0.0
 11
1920.0
 21
220.0
 31
0.0
  0
LINE
  5
42
330
30
100
AcDbEntity
  8
LC-001-111-----0
 62
   253
370
    25
100
AcDbLine
 10
1166.0
 20
538.75
 30
0.0
 11
2050.0
 21
538.75
 31
0.0
  0
LINE
  5
43
330
30
100
AcDbEntity
  8
LC-001-111-----0
 62
   253
370
    25
100
AcDbLine
 10
256.0
 20
50.0
 30
0.0
 11
256.0
 21
432.5
 31
0.0
  0
LINE
  5
44
330
30
100
AcDbEntity
  8
LC-001-111-----0
 62
   253
370
    25
100
AcDbLine
 10
516.0
 20
50.0
 30
0.0
 11
516.0
 21
432.5
 31
0.0
  0
LINE
  5
45
330
30
100
AcDbEntity
  8
LC-001-111-----0
 62
   253
370
    25
100
AcDbLine
 10
646.0
 20
50.0
 30
0.0
 11
646.0
 21
432.5
 31
0.0
  0
LINE
  5
46
330
30
100
AcDbEntity
  8
LC-001-111-----0
 62
   253
370
    35
100
AcDbLine
 10
724.0
 20
50.0
 30
0.0
 11
724.0
 21
602.5
 31
0.0
  0
LINE
  5
47
330
30
100
AcDbEntity
  8
LC-001-111-----0
 62
   253
370
    35
100
AcDbLine
 10
1166.0
 20
50.0
 30
0.0
 11
1166.0
 21
602.5
 31
0.0
  0
LINE
  5
48
330
30
100
AcDbEntity
  8
LC-001-111-----0
 62
   253
370
    25
100
AcDbLine
 10
1920.0
 20
135.0
 30
0.0
 11
2050.0
 21
135.0
 31
0.0
  0
LINE
  5
49
330
30
100
AcDbEntity
  8
LC-001-111-----0
 62
   253
370
    25
100
AcDbLine
 10
984.0
 20
220.0
 30
0.0
 11
984.0
 21
602.5
 31
0.0
  0
LINE
  5
4A
330
30
100
AcDbEntity
  8
LC-001-111-----0
 62
   253
370
    25
100
AcDbLine
 10
1686.0
 20
538.75
 30
0.0
 11
1686.0
 21
602.5
 31
0.0
  0
LINE
  5
4B
330
30
100
AcDbEntity
  8
LC-001-111-----0
 62
   253
370
    25
100
AcDbLine
 10
1608.0
 20
50.0
 30
0.0
 11
1608.0
 21
92.5
 31
0.0
  0
LINE
  5
4C
330
30
100
AcDbEntity
  8
LC-001-111-----0
 62
   253
370
    50
100
AcDbLine
 10
178.0
 20
50.0
 30
0.0
 11
178.0
 21
2920.0
 31
0.0
  0
LINE
  5
4D
330
30
100
AcDbEntity
  8
LC-001-111-----0
 62
   253
370
    50
100
AcDbLine
 10
178.0
 20
2920.0
 30
0.0
 11
2050.0
 21
2920.0
 31
0.0
  0
TEXT
  5
4E
330
30
100
AcDbEntity
  8
LC-001-111-----0
 62
     7
370
    25
100
AcDbText
 10
1471.410714
 20
558.125
 30
0.0
 40
25.0
  1
1:10
 41
0.75
  7
LCTX0-400-0-0pDIN-Schrift
 72
     1
 11
1504.0
 21
558.125
 31
0.0
100
AcDbText
  0
TEXT
  5
4F
330
30
100
AcDbEntity
  8
LC-001-111-----0
 62
     7
370
    25
100
AcDbText
 10
740.732143
 20
398.75
 30
0.0
 40
25.0
  1
2009
 41
0.75
  7
LCTX0-400-0-0pDIN-Schrift
 72
     1
 11
776.0
 21
398.75
 31
0.0
100
AcDbText
  0
TEXT
  5
50
330
30
100
AcDbEntity
  8
LC-001-111-----0
 62
     7
370
    25
100
AcDbText
 10
861.803571
 20
356.25
 30
0.0
 40
25.0
  1
06.03.
 41
0.75
  7
LCTX0-400-0-0pDIN-Schrift
 72
     1
 11
906.0
 21
356.25
 31
0.0
100
AcDbText
  0
TEXT
  5
51
330
30
100
AcDbEntity
  8
LC-001-111-----0
 62
     7
370
    25
100
AcDbText
 10
1056.696429
 20
356.25
 30
0.0
 40
25.0
  1
HÄ
 41
0.75
  7
LCTX0-400-0-0pDIN-Schrift
 72
     1
 11
1075.0
 21
356.25
 31
0.0
100
AcDbText
  0
TEXT
  5
52
330
30
100
AcDbEntity
  8
LC-001-111-----0
 62
   253
370
    20
100
AcDbText
 10
1183.923077
 20
560.625
 30
0.0
 40
20.0
  1
Maßstab
 41
0.75
  7
LCTX0-400-0-0pDIN-Schrift
100
AcDbText
  0
TEXT
  5
53
330
30
100
AcDbEntity
  8
LC-001-111-----0
 62
   253
370
    20
100
AcDbText
 10
869.928571
 20
401.25
 30
0.0
 40
20.0
  1
Datum
 41
0.75
  7
LCTX0-400-0-0pDIN-Schrift
 72
     1
 11
906.0
 21
401.25
 31
0.0
100
AcDbText
  0
TEXT
  5
54
330
30
100
AcDbEntity
  8
LC-001-111-----0
 62
   253
370
    20
100
AcDbText
 10
1042.857143
 20
401.25
 30
0.0
 40
20.0
  1
Name
 41
0.75
  7
LCTX0-400-0-0pDIN-Schrift
 72
     1
 11
1075.0
 21
401.25
 31
0.0
100
AcDbText
  0
TEXT
  5
55
330
30
100
AcDbEntity
  8
LC-001-111-----0
 62
   253
370
    20
100
AcDbText
 10
741.923077
 20
358.75
 30
0.0
 40
20.0
  1
Bearb.
 41
0.75
  7
LCTX0-400-0-0pDIN-Schrift
100
AcDbText
  0
TEXT
  5
56
330
30
100
AcDbEntity
  8
LC-001-111-----0
 62
   253
370
    20
100
AcDbText
 10
741.923077
 20
316.25
 30
0.0
 40
20.0
  1
Gepr.
 41
0.75
  7
LCTX0-400-0-0pDIN-Schrift
100
AcDbText
  0
TEXT
  5
57
330
30
100
AcDbEntity
  8
LC-001-111-----0
 62
   253
370
    20
100
AcDbText
 10
741.923077
 20
273.75
 30
0.0
 40
20.0
  1
Norm
 41
0.75
  7
LCTX0-400-0-0pDIN-Schrift
100
AcDbText
  0
TEXT
  5
58
330
30
100
AcDbEntity
  8
LC-001-111-----0
 62
   253
370
    20
100
AcDbText
 10
1937.923077
 20
188.75
 30
0.0
 40
20.0
  1
Blatt
 41
0.75
  7
LCTX0-400-0-0pDIN-Schrift
100
AcDbText
  0
TEXT
  5
59
330
30
100
AcDbEntity
  8
LC-001-111-----0
 62
   253
370
    20
100
AcDbText
 10
2012.076923
 20
103.75
 30
0.0
 40
20.0
  1
Bl.
 41
0.75
  7
LCTX0-400-0-0pDIN-Schrift
 72
     2
 11
2037.076923
 21
103.75
 31
0.0
100
AcDbText
  0
TEXT
  5
5A
330
30
100
AcDbEntity
  8
LC-001-111-----0
 62
   253
370
    20
100
AcDbText
 10
200.0
 20
61.25
 30
0.0
 40
20.0
  1
Zust.
 41
0.6
  7
LCTX0-400-0-0pDIN-Schrift
 72
     1
 11
222.0
 21
61.25
 31
0.0
100
AcDbText
  0
TEXT
  5
5B
330
30
100
AcDbEntity
  8
LC-001-111-----0
 62
   253
370
    20
100
AcDbText
 10
334.928571
 20
61.25
 30
0.0
 40
20.0
  1
Änderung
 41
0.75
  7
LCTX0-400-0-0pDIN-Schrift
 72
     1
 11
386.0
 21
61.25
 31
0.0
100
AcDbText
  0
TEXT
  5
5C
330
30
100
AcDbEntity
  8
LC-001-111-----0
 62
   253
370
    20
100
AcDbText
 10
544.928571
 20
61.25
 30
0.0
 40
20.0
  1
Datum
 41
0.75
  7
LCTX0-400-0-0pDIN-Schrift
 72
     1
 11
581.0
 21
61.25
 31
0.0
100
AcDbText
  0
TEXT
  5
5D
330
30
100
AcDbEntity
  8
LC-001-111-----0
 62
   253
370
    20
100
AcDbText
 10
652.857143
 20
61.25
 30
0.0
 40
20.0
  1
Name
 41
0.75
  7
LCTX0-400-0-0pDIN-Schrift
 72
     1
 11
685.0
 21
61.25
 31
0.0
100
AcDbText
  0
TEXT
  5
5E
330
30
100
AcDbEntity
  8
LC-001-111-----0
 62
     7
370
    50
100
AcDbText
 10
1380.321429
 20
343.75
 30
0.0
 40
50.0
  1
Madison N-200
 41
0.75
  7
LCTX0-400-0-0pDIN-Schrift
 72
     1
 11
1608.0
 21
343.75
 31
0.0
100
AcDbText
  0
TEXT
  5
5F
330
30
100
AcDbEntity
  8
LC-001-111-----0
 62
     7
370
    35
100
AcDbText
 10
1389.618943
 20
266.25
 30
0.0
 40
35.0
  1
drop in, inch dimensions
 41
0.75
  7
LCTX0-400-0-0pDIN-Schrift
100
AcDbText
  0
TEXT
  5
60
330
30
100
AcDbEntity
  8
LC-001-111-----0
 62
     7
370
    50
100
AcDbText
 10
1327.821429
 20
131.25
 30
0.0
 40
50.0
  1
4.09.739.04.04
 41
0.75
  7
LCTX0-400-0-0pDIN-Schrift
 72
     1
 11
1543.0
 21
131.25
 31
0.0
100
AcDbText
  0
ARC
  5
61
330
30
100
AcDbEntity
  8
LC-001-111-----0
 62
   253
370
    25
100
AcDbCircle
 10
758.903191
 20
174.567744
 30
0.0
 40
20.81533311668208
100
AcDbArc
 50
62.408264
 51
94.48185
  0
LINE
  5
62
330
30
100
AcDbEntity
  8
LC-001-111-----0
 62
   253
370
    50
100
AcDbLine
 10
178.0
 20
50.0
 30
0.0
 11
2050.0
 21
50.0
 31
0.0
  0
LINE
  5
63
330
30
100
AcDbEntity
  8
LC-001-111-----0
 62
   253
370
    25
100
AcDbLine
 10
50.0
 20
1485.0
 30
0.0
 11
0.0
 21
1485.0
 31
0.0
  0
LINE
  5
64
330
30
100
AcDbEntity
  8
LC-001-111-----0
 62
   253
370
    25
100
AcDbLine
 10
1063.835603
 20
195.169147
 30
0.0
 11
1063.835603
 21
157.149147
 31
0.0
  0
LINE
  5
65
330
30
100
AcDbEntity
  8
LC-001-111-----0
 62
   253
370
    25
100
AcDbLine
 10
2100.0
 20
2970.0
 30
0.0
 11
2100.0
 21
0.0
 31
0.0
  0
LINE
  5
66
330
30
100
AcDbEntity
  8
LC-001-111-----0
 62
   253
370
    25
100
AcDbLine
 10
2100.0
 20
0.0
 30
0.0
 11
0.0
 21
0.0
 31
0.0
  0
LINE
  5
67
330
30
100
AcDbEntity
  8
LC-001-111-----0
 62
   253
370
    25
100
AcDbLine
 10
0.0
 20
0.0
 30
0.0
 11
0.0
 21
2970.0
 31
0.0
  0
LINE
  5
68
330
30
100
AcDbEntity
  8
LC-001-111-----0
 62
   253
370
    25
100
AcDbLine
 10
2100.0
 20
2970.0
 30
0.0
 11
0.0
 21
2970.0
 31
0.0
  0
TEXT
  5
69
330
30
100
AcDbEntity
  8
LC-001-111-----0
 62
   253
370
    20
100
AcDbText
 10
763.0
 20
111.159147
 30
0.0
 40
20.0
  1
Hofbauerstraße1 · D-94209 REGEN
 41
0.65
  7
LCTX0-400-0-0pDIN-Schrift
 72
     1
 11
945.0
 21
111.159147
 31
0.0
100
AcDbText
  0
ARC
  5
6A
330
30
100
AcDbEntity
  8
LC-001-111-----0
 62
   253
370
    25
100
AcDbCircle
 10
758.032826
 20
185.671748
 30
0.0
 40
9.677270814709853
100
AcDbArc
 50
94.48185
 51
252.731329
  0
ARC
  5
6B
330
30
100
AcDbEntity
  8
LC-001-111-----0
 62
   253
370
    25
100
AcDbCircle
 10
823.845603
 20
176.159147
 30
0.0
 40
19.01000000000008
100
AcDbArc
 50
74.719456
 51
285.280544
  0
LINE
  5
6C
330
30
100
AcDbEntity
  8
LC-001-111-----0
 62
   253
370
    25
100
AcDbLine
 10
828.855603
 20
157.821208
 30
0.0
 11
828.855603
 21
163.204148
 31
0.0
  0
ARC
  5
6D
330
30
100
AcDbEntity
  8
LC-001-111-----0
 62
   253
370
    25
100
AcDbCircle
 10
823.845603
 20
176.159147
 30
0.0
 40
13.88999999999995
100
AcDbArc
 50
68.857352
 51
291.142648
  0
ARC
  5
6E
330
30
100
AcDbEntity
  8
LC-001-111-----0
 62
   253
370
    25
100
AcDbCircle
 10
823.845603
 20
176.159147
 30
0.0
 40
12.39000000000002
100
AcDbArc
 50
58.303227
 51
301.696773
  0
ARC
  5
6F
330
30
100
AcDbEntity
  8
LC-001-111-----0
 62
   253
370
    25
100
AcDbCircle
 10
1019.845603
 20
176.159147
 30
0.0
 40
19.01000000000008
100
AcDbArc
 50
74.719456
 51
285.280544
  0
LINE
  5
70
330
30
100
AcDbEntity
  8
LC-001-111-----0
 62
   253
370
    25
100
AcDbLine
 10
830.355603
 20
165.617231
 30
0.0
 11
830.355603
 21
156.709726
 31
0.0
  0
LINE
  5
71
330
30
100
AcDbEntity
  8
LC-001-111-----0
 62
   253
370
    25
100
AcDbLine
 10
755.160101
 20
176.430697
 30
0.0
 11
762.683613
 21
174.091896
 31
0.0
  0
ARC
  5
72
330
30
100
AcDbEntity
  8
LC-001-111-----0
 62
   253
370
    25
100
AcDbCircle
 10
823.845603
 20
176.159147
 30
0.0
 40
20.51000000000012
100
AcDbArc
 50
71.493868
 51
288.506132
  0
LINE
  5
73
330
30
100
AcDbEntity
  8
LC-001-111-----0
 62
   253
370
    25
100
AcDbLine
 10
1024.855603
 20
157.821208
 30
0.0
 11
1024.855603
 21
163.204148
 31
0.0
  0
LINE
  5
74
330
30
100
AcDbEntity
  8
LC-001-111-----0
 62
   253
370
    25
100
AcDbLine
 10
830.355603
 20
195.608569
 30
0.0
 11
830.355603
 21
186.701063
 31
0.0
  0
ARC
  5
75
330
30
100
AcDbEntity
  8
LC-001-111-----0
 62
   253
370
    25
100
AcDbCircle
 10
1019.845603
 20
176.159147
 30
0.0
 40
13.88999999999995
100
AcDbArc
 50
68.857352
 51
291.142648
  0
LINE
  5
76
330
30
100
AcDbEntity
  8
LC-001-111-----0
 62
   253
370
    25
100
AcDbLine
 10
862.835603
 20
155.649147
 30
0.0
 11
862.835603
 21
196.669147
 31
0.0
  0
LINE
  5
77
330
30
100
AcDbEntity
  8
LC-001-111-----0
 62
   253
370
    25
100
AcDbLine
 10
862.835603
 20
196.669147
 30
0.0
 11
872.355603
 21
196.669147
 31
0.0
  0
LINE
  5
78
330
30
100
AcDbEntity
  8
LC-001-111-----0
 62
   253
370
    25
100
AcDbLine
 10
872.355603
 20
196.669147
 30
0.0
 11
872.355603
 21
179.519147
 31
0.0
  0
LINE
  5
79
330
30
100
AcDbEntity
  8
LC-001-111-----0
 62
   253
370
    25
100
AcDbLine
 10
872.355603
 20
179.519147
 30
0.0
 11
887.335603
 21
179.519147
 31
0.0
  0
LINE
  5
7A
330
30
100
AcDbEntity
  8
LC-001-111-----0
 62
   253
370
    25
100
AcDbLine
 10
887.335603
 20
179.519147
 30
0.0
 11
887.335603
 21
196.669147
 31
0.0
  0
LINE
  5
7B
330
30
100
AcDbEntity
  8
LC-001-111-----0
 62
   253
370
    25
100
AcDbLine
 10
887.335603
 20
196.669147
 30
0.0
 11
896.855603
 21
196.669147
 31
0.0
  0
LINE
  5
7C
330
30
100
AcDbEntity
  8
LC-001-111-----0
 62
   253
370
    25
100
AcDbLine
 10
896.855603
 20
196.669147
 30
0.0
 11
896.855603
 21
155.649147
 31
0.0
  0
LINE
  5
7D
330
30
100
AcDbEntity
  8
LC-001-111-----0
 62
   253
370
    25
100
AcDbLine
 10
896.855603
 20
155.649147
 30
0.0
 11
887.335603
 21
155.649147
 31
0.0
  0
LINE
  5
7E
330
30
100
AcDbEntity
  8
LC-001-111-----0
 62
   253
370
    25
100
AcDbLine
 10
887.335603
 20
155.649147
 30
0.0
 11
887.335603
 21
172.799147
 31
0.0
  0
LINE
  5
7F
330
30
100
AcDbEntity
  8
LC-001-111-----0
 62
   253
370
    25
100
AcDbLine
 10
887.335603
 20
172.799147
 30
0.0
 11
872.355603
 21
172.799147
 31
0.0
  0
LINE
  5
80
330
30
100
AcDbEntity
  8
LC-001-111-----0
 62
   253
370
    25
100
AcDbLine
 10
872.355603
 20
172.799147
 30
0.0
 11
872.355603
 21
155.649147
 31
0.0
  0
LINE
  5
81
330
30
100
AcDbEntity
  8
LC-001-111-----0
 62
   253
370
    25
100
AcDbLine
 10
872.355603
 20
155.649147
 30
0.0
 11
862.835603
 21
155.649147
 31
0.0
  0
CIRCLE
  5
82
330
30
100
AcDbEntity
  8
LC-001-111-----0
 62
   253
370
    25
100
AcDbCircle
 10
946.345603
 20
176.159147
 30
0.0
 40
12.39000000000044
  0
CIRCLE
  5
83
330
30
100
AcDbEntity
  8
LC-001-111-----0
 62
   253
370
    25
100
AcDbCircle
 10
946.345603
 20
176.159147
 30
0.0
 40
20.51000000000049
  0
ARC
  5
84
330
30
100
AcDbEntity
  8
LC-001-111-----0
 62
   253
370
    25
100
AcDbCircle
 10
1019.845603
 20
176.159147
 30
0.0
 40
12.39000000000002
100
AcDbArc
 50
58.303227
 51
301.696773
  0
LINE
  5
85
330
30
100
AcDbEntity
  8
LC-001-111-----0
 62
   253
370
    25
100
AcDbLine
 10
864.335603
 20
195.169147
 30
0.0
 11
864.335603
 21
157.149147
 31
0.0
  0
LINE
  5
86
330
30
100
AcDbEntity
  8
LC-001-111-----0
 62
   253
370
    25
100
AcDbLine
 10
1026.355603
 20
165.617231
 30
0.0
 11
1026.355603
 21
156.709726
 31
0.0
  0
LINE
  5
87
330
30
100
AcDbEntity
  8
LC-001-111-----0
 62
   253
370
    25
100
AcDbLine
 10
864.335603
 20
157.149147
 30
0.0
 11
870.855603
 21
157.149147
 31
0.0
  0
LINE
  5
88
330
30
100
AcDbEntity
  8
LC-001-111-----0
 62
   253
370
    25
100
AcDbLine
 10
870.855603
 20
157.149147
 30
0.0
 11
870.855603
 21
174.299147
 31
0.0
  0
LINE
  5
89
330
30
100
AcDbEntity
  8
LC-001-111-----0
 62
   253
370
    25
100
AcDbLine
 10
870.855603
 20
174.299147
 30
0.0
 11
888.835603
 21
174.299147
 31
0.0
  0
LINE
  5
8A
330
30
100
AcDbEntity
  8
LC-001-111-----0
 62
   253
370
    25
100
AcDbLine
 10
888.835603
 20
174.299147
 30
0.0
 11
888.835603
 21
157.149147
 31
0.0
  0
LINE
  5
8B
330
30
100
AcDbEntity
  8
LC-001-111-----0
 62
   253
370
    25
100
AcDbLine
 10
888.835603
 20
157.149147
 30
0.0
 11
895.355603
 21
157.149147
 31
0.0
  0
LINE
  5
8C
330
30
100
AcDbEntity
  8
LC-001-111-----0
 62
   253
370
    25
100
AcDbLine
 10
895.355603
 20
157.149147
 30
0.0
 11
895.355603
 21
195.169147
 31
0.0
  0
LINE
  5
8D
330
30
100
AcDbEntity
  8
LC-001-111-----0
 62
   253
370
    25
100
AcDbLine
 10
895.355603
 20
195.169147
 30
0.0
 11
888.835603
 21
195.169147
 31
0.0
  0
LINE
  5
8E
330
30
100
AcDbEntity
  8
LC-001-111-----0
 62
   253
370
    25
100
AcDbLine
 10
888.835603
 20
195.169147
 30
0.0
 11
888.835603
 21
178.019147
 31
0.0
  0
LINE
  5
8F
330
30
100
AcDbEntity
  8
LC-001-111-----0
 62
   253
370
    25
100
AcDbLine
 10
888.835603
 20
178.019147
 30
0.0
 11
870.855603
 21
178.019147
 31
0.0
  0
LINE
  5
90
330
30
100
AcDbEntity
  8
LC-001-111-----0
 62
   253
370
    25
100
AcDbLine
 10
870.855603
 20
178.019147
 30
0.0
 11
870.855603
 21
195.169147
 31
0.0
  0
CIRCLE
  5
91
330
30
100
AcDbEntity
  8
LC-001-111-----0
 62
   253
370
    25
100
AcDbCircle
 10
946.345603
 20
176.159147
 30
0.0
 40
19.01000000000055
  0
ARC
  5
92
330
30
100
AcDbEntity
  8
LC-001-111-----0
 62
   253
370
    25
100
AcDbCircle
 10
760.836588
 20
168.15034
 30
0.0
 40
6.222024781007809
100
AcDbArc
 50
268.246912
 51
72.731329
  0
ARC
  5
93
330
30
100
AcDbEntity
  8
LC-001-111-----0
 62
   253
370
    25
100
AcDbCircle
 10
761.412387
 20
186.963179
 30
0.0
 40
25.04367341134793
100
AcDbArc
 50
239.19233
 51
268.246912
  0
LINE
  5
94
330
30
100
AcDbEntity
  8
LC-001-111-----0
 62
   253
370
    25
100
AcDbLine
 10
748.586073
 20
165.453385
 30
0.0
 11
748.586073
 21
160.350534
 31
0.0
  0
ARC
  5
95
330
30
100
AcDbEntity
  8
LC-001-111-----0
 62
   253
370
    25
100
AcDbCircle
 10
760.81067
 20
180.45076
 30
0.0
 40
23.52572762426598
100
AcDbArc
 50
238.692783
 51
274.343327
  0
ARC
  5
96
330
30
100
AcDbEntity
  8
LC-001-111-----0
 62
   253
370
    25
100
AcDbCircle
 10
1019.845603
 20
176.159147
 30
0.0
 40
20.51000000000012
100
AcDbArc
 50
71.493868
 51
288.506132
  0
ARC
  5
97
330
30
100
AcDbEntity
  8
LC-001-111-----0
 62
   253
370
    25
100
AcDbCircle
 10
761.779647
 20
167.692822
 30
0.0
 40
10.73104525444839
100
AcDbArc
 50
274.343327
 51
74.255463
  0
LINE
  5
98
330
30
100
AcDbEntity
  8
LC-001-111-----0
 62
   253
370
    25
100
AcDbLine
 10
1026.355603
 20
195.608569
 30
0.0
 11
1026.355603
 21
186.701063
 31
0.0
  0
LINE
  5
99
330
30
100
AcDbEntity
  8
LC-001-111-----0
 62
   253
370
    25
100
AcDbLine
 10
764.691502
 20
178.02125
 30
0.0
 11
757.135251
 21
180.151556
 31
0.0
  0
LINE
  5
9A
330
30
100
AcDbEntity
  8
LC-001-111-----0
 62
   253
370
    25
100
AcDbLine
 10
1024.855603
 20
189.114146
 30
0.0
 11
1024.855603
 21
194.497086
 31
0.0
  0
ARC
  5
9B
330
30
100
AcDbEntity
  8
LC-001-111-----0
 62
   253
370
    25
100
AcDbCircle
 10
758.632108
 20
185.460948
 30
0.0
 40
5.51636013010035
100
AcDbArc
 50
90.951212
 51
254.255463
  0
ARC
  5
9C
330
30
100
AcDbEntity
  8
LC-001-111-----0
 62
   253
370
    25
100
AcDbCircle
 10
758.906662
 20
168.924866
 30
0.0
 40
22.05472179307849
100
AcDbArc
 50
64.088485
 51
90.951212
  0
LINE
  5
9D
330
30
100
AcDbEntity
  8
LC-001-111-----0
 62
   253
370
    25
100
AcDbLine
 10
768.544191
 20
188.762426
 30
0.0
 11
768.544191
 21
193.015758
 31
0.0
  0
LINE
  5
9E
330
30
100
AcDbEntity
  8
LC-001-111-----0
 62
   253
370
    25
100
AcDbLine
 10
1071.855603
 20
177.513832
 30
0.0
 11
1087.818366
 21
196.669147
 31
0.0
  0
LINE
  5
9F
330
30
100
AcDbEntity
  8
LC-001-111-----0
 62
   253
370
    25
100
AcDbLine
 10
1087.818366
 20
196.669147
 30
0.0
 11
1099.299433
 21
196.669147
 31
0.0
  0
LINE
  5
A0
330
30
100
AcDbEntity
  8
LC-001-111-----0
 62
   253
370
    25
100
AcDbLine
 10
1099.299433
 20
196.669147
 30
0.0
 11
1082.207766
 21
176.159147
 31
0.0
  0
LINE
  5
A2
330
30
100
AcDbEntity
  8
LC-002-002-----0
 62
     1
370
    25
100
AcDbLine
 10
1143.855603
 20
159.963432
 30
0.0
 11
1143.855603
 21
192.354862
 31
0.0
  0
LINE
  5
A3
330
30
100
AcDbEntity
  8
LC-002-002-----0
 62
     1
370
    25
100
AcDbLine
 10
1143.855603
 20
192.354862
 30
0.0
 11
1127.659888
 21
176.159147
 31
0.0
  0
LINE
  5
A4
330
30
100
AcDbEntity
  8
LC-002-002-----0
 62
     1
370
    25
100
AcDbLine
 10
1127.659888
 20
176.159147
 30
0.0
 11
1143.855603
 21
159.963432
 31
0.0
  0
LINE
  5
A5
330
30
100
AcDbEntity
  8
LC-002-002-----0
 62
     1
370
    25
100
AcDbLine
 10
1142.355603
 20
163.584752
 30
0.0
 11
1142.355603
 21
188.733542
 31
0.0
  0
LINE
  5
A6
330
30
100
AcDbEntity
  8
LC-001-111-----0
 62
   253
370
    25
100
AcDbLine
 10
1082.207766
 20
176.159147
 30
0.0
 11
1099.299433
 21
155.649147
 31
0.0
  0
LINE
  5
A7
330
30
100
AcDbEntity
  8
LC-001-111-----0
 62
   253
370
    25
100
AcDbLine
 10
1099.299433
 20
155.649147
 30
0.0
 11
1087.818366
 21
155.649147
 31
0.0
  0
LINE
  5
A8
330
30
100
AcDbEntity
  8
LC-001-111-----0
 62
   253
370
    25
100
AcDbLine
 10
1087.818366
 20
155.649147
 30
0.0
 11
1071.855603
 21
174.804462
 31
0.0
  0
LINE
  5
A9
330
30
100
AcDbEntity
  8
LC-001-111-----0
 62
   253
370
    25
100
AcDbLine
 10
1062.335603
 20
155.649147
 30
0.0
 11
1062.335603
 21
196.669147
 31
0.0
  0
LINE
  5
AA
330
30
100
AcDbEntity
  8
LC-001-111-----0
 62
   253
370
    25
100
AcDbLine
 10
828.855603
 20
189.114146
 30
0.0
 11
828.855603
 21
194.497086
 31
0.0
  0
ARC
  5
AB
330
30
100
AcDbEntity
  8
LC-001-111-----0
 62
   253
370
    25
100
AcDbCircle
 10
758.903191
 20
174.567744
 30
0.0
 40
19.31533311668209
100
AcDbArc
 50
65.072024
 51
94.48185
  0
LINE
  5
AC
330
30
100
AcDbEntity
  8
LC-001-111-----0
 62
   253
370
    25
100
AcDbLine
 10
1063.835603
 20
157.149147
 30
0.0
 11
1070.355603
 21
157.149147
 31
0.0
  0
LINE
  5
AD
330
30
100
AcDbEntity
  8
LC-001-111-----0
 62
   253
370
    25
100
AcDbLine
 10
1070.355603
 20
157.149147
 30
0.0
 11
1070.355603
 21
195.169147
 31
0.0
  0
LINE
  5
AE
330
30
100
AcDbEntity
  8
LC-001-111-----0
 62
   253
370
    25
100
AcDbLine
 10
1070.355603
 20
195.169147
 30
0.0
 11
1063.835603
 21
195.169147
 31
0.0
  0
LINE
  5
AF
330
30
100
AcDbEntity
  8
LC-001-111-----0
 62
   253
370
    25
100
AcDbLine
 10
1065.335603
 20
193.669147
 30
0.0
 11
1065.335603
 21
158.649147
 31
0.0
  0
LINE
  5
B0
330
30
100
AcDbEntity
  8
LC-002-002-----0
 62
     1
370
    25
100
AcDbLine
 10
1142.355603
 20
188.733542
 30
0.0
 11
1129.781208
 21
176.159147
 31
0.0
  0
LINE
  5
B1
330
30
100
AcDbEntity
  8
LC-002-002-----0
 62
     1
370
    25
100
AcDbLine
 10
1129.781208
 20
176.159147
 30
0.0
 11
1142.355603
 21
163.584752
 31
0.0
  0
LINE
  5
B2
330
30
100
AcDbEntity
  8
LC-001-111-----0
 62
   253
370
    25
100
AcDbLine
 10
1062.335603
 20
196.669147
 30
0.0
 11
1071.855603
 21
196.669147
 31
0.0
  0
LINE
  5
B3
330
30
100
AcDbEntity
  8
LC-001-111-----0
 62
   253
370
    25
100
AcDbLine
 10
1071.855603
 20
196.669147
 30
0.0
 11
1071.855603
 21
155.649147
 31
0.0
  0
LINE
  5
B4
330
30
100
AcDbEntity
  8
LC-001-111-----0
 62
   253
370
    25
100
AcDbLine
 10
1071.855603
 20
155.649147
 30
0.0
 11
1062.335603
 21
155.649147
 31
0.0
  0
ARC
  5
B5
330
30
100
AcDbEntity
  8
LC-001-111-----0
 62
   253
370
    25
100
AcDbCircle
 10
758.032826
 20
185.671748
 30
0.0
 40
8.177270814709827
100
AcDbArc
 50
94.48185
 51
252.731329
  0
LINE
  5
B6
330
30
100
AcDbEntity
  8
LC-001-111-----0
 62
   253
370
    25
100
AcDbLine
 10
755.60538
 20
177.863082
 30
0.0
 11
763.128892
 21
175.524281
 31
0.0
  0
ARC
  5
B7
330
30
100
AcDbEntity
  8
LC-001-111-----0
 62
   253
370
    25
100
AcDbCircle
 10
760.836588
 20
168.15034
 30
0.0
 40
7.72202478100773
100
AcDbArc
 50
268.246912
 51
72.731329
  0
LINE
  5
B8
330
30
100
AcDbEntity
  8
LC-001-111-----0
 62
   253
370
    25
100
AcDbLine
 10
827.355603
 20
191.143539
 30
0.0
 11
827.355603
 21
193.313738
 31
0.0
  0
ARC
  5
B9
330
30
100
AcDbEntity
  8
LC-001-111-----0
 62
   253
370
    25
100
AcDbCircle
 10
823.845603
 20
176.159147
 30
0.0
 40
17.50999999999996
100
AcDbArc
 50
78.436322
 51
281.563678
  0
LINE
  5
BA
330
30
100
AcDbEntity
  8
LC-001-111-----0
 62
   253
370
    25
100
AcDbLine
 10
827.355603
 20
159.004556
 30
0.0
 11
827.355603
 21
161.174755
 31
0.0
  0
LINE
  5
BB
330
30
100
AcDbEntity
  8
LC-002-002-----0
 62
     1
370
    25
100
AcDbLine
 10
1145.355603
 20
195.976182
 30
0.0
 11
1145.355603
 21
156.342112
 31
0.0
  0
LINE
  5
BC
330
30
100
AcDbEntity
  8
LC-002-002-----0
 62
     1
370
    25
100
AcDbLine
 10
1145.355603
 20
156.342112
 30
0.0
 11
1125.538568
 21
176.159147
 31
0.0
  0
LINE
  5
BD
330
30
100
AcDbEntity
  8
LC-002-002-----0
 62
     1
370
    25
100
AcDbLine
 10
1125.538568
 20
176.159147
 30
0.0
 11
1145.355603
 21
195.976182
 31
0.0
  0
LINE
  5
BE
330
30
100
AcDbEntity
  8
LC-001-111-----0
 62
   253
370
    25
100
AcDbLine
 10
1065.335603
 20
158.649147
 30
0.0
 11
1068.855603
 21
158.649147
 31
0.0
  0
LINE
  5
BF
330
30
100
AcDbEntity
  8
LC-001-111-----0
 62
   253
370
    25
100
AcDbLine
 10
1068.855603
 20
158.649147
 30
0.0
 11
1068.855603
 21
193.669147
 31
0.0
  0
LINE
  5
C0
330
30
100
AcDbEntity
  8
LC-001-111-----0
 62
   253
370
    25
100
AcDbLine
 10
1068.855603
 20
193.669147
 30
0.0
 11
1065.335603
 21
193.669147
 31
0.0
  0
LINE
  5
C1
330
30
100
AcDbEntity
  8
LC-001-111-----0
 62
   253
370
    25
100
AcDbLine
 10
1067.095603
 20
192.169147
 30
0.0
 11
1067.095603
 21
160.149147
 31
0.0
  0
ARC
  5
C2
330
30
100
AcDbEntity
  8
LC-001-111-----0
 62
   253
370
    25
100
AcDbCircle
 10
823.845603
 20
176.159147
 30
0.0
 40
15.38999999999992
100
AcDbArc
 50
76.816519
 51
283.183481
  0
LINE
  5
C3
330
30
100
AcDbEntity
  8
LC-001-111-----0
 62
   253
370
    25
100
AcDbLine
 10
870.855603
 20
195.169147
 30
0.0
 11
864.335603
 21
195.169147
 31
0.0
  0
LINE
  5
C4
330
30
100
AcDbEntity
  8
LC-001-111-----0
 62
   253
370
    25
100
AcDbLine
 10
1096.09687
 20
195.169147
 30
0.0
 11
1088.520928
 21
195.169147
 31
0.0
  0
LINE
  5
C5
330
30
100
AcDbEntity
  8
LC-001-111-----0
 62
   253
370
    25
100
AcDbLine
 10
865.835603
 20
158.649147
 30
0.0
 11
869.355603
 21
158.649147
 31
0.0
  0
LINE
  5
C6
330
30
100
AcDbEntity
  8
LC-001-111-----0
 62
   253
370
    25
100
AcDbLine
 10
1023.355603
 20
191.143539
 30
0.0
 11
1023.355603
 21
193.313738
 31
0.0
  0
LINE
  5
C7
330
30
100
AcDbEntity
  8
LC-001-111-----0
 62
   253
370
    25
100
AcDbLine
 10
892.095603
 20
192.169147
 30
0.0
 11
892.095603
 21
160.149147
 31
0.0
  0
TEXT
  5
C8
330
30
100
AcDbEntity
  8
LC-001-111-----0
 62
     1
370
    15
100
AcDbText
 10
1871.482143
 20
21.25
 30
0.0
 40
15.0
  1
Madison-N200-inch
 41
0.75
  7
LCTX0-400-0-0pDIN-Schrift
 72
     1
 11
1958.0
 21
21.25
 31
0.0
100
AcDbText
  0
CIRCLE
  5
C9
330
30
100
AcDbEntity
  8
LC-001-111-----0
 62
   253
370
    25
100
AcDbCircle
 10
946.345603
 20
176.159147
 30
0.0
 40
17.51000000000047
  0
LINE
  5
CA
330
30
100
AcDbEntity
  8
LC-001-111-----0
 62
   253
370
    25
100
AcDbLine
 10
1088.520928
 20
195.169147
 30
0.0
 11
1072.679261
 21
176.159147
 31
0.0
  0
ARC
  5
CB
330
30
100
AcDbEntity
  8
LC-001-111-----0
 62
   253
370
    25
100
AcDbCircle
 10
1019.845603
 20
176.159147
 30
0.0
 40
17.50999999999996
100
AcDbArc
 50
78.436322
 51
281.563678
  0
ARC
  5
CC
330
30
100
AcDbEntity
  8
LC-001-111-----0
 62
   253
370
    25
100
AcDbCircle
 10
761.412387
 20
186.963179
 30
0.0
 40
26.54367341134783
100
AcDbArc
 50
244.741378
 51
268.246912
  0
LINE
  5
CD
330
30
100
AcDbEntity
  8
LC-001-111-----0
 62
   253
370
    25
100
AcDbLine
 10
1023.355603
 20
159.004556
 30
0.0
 11
1023.355603
 21
161.174755
 31
0.0
  0
LINE
  5
CE
330
30
100
AcDbEntity
  8
LC-002-002-----0
 62
     1
370
    25
100
AcDbLine
 10
1140.855603
 20
167.206073
 30
0.0
 11
1140.855603
 21
185.112221
 31
0.0
  0
LINE
  5
CF
330
30
100
AcDbEntity
  8
LC-002-002-----0
 62
     1
370
    25
100
AcDbLine
 10
1140.855603
 20
185.112221
 30
0.0
 11
1131.902529
 21
176.159147
 31
0.0
  0
LINE
  5
D0
330
30
100
AcDbEntity
  8
LC-002-002-----0
 62
     1
370
    25
100
AcDbLine
 10
1131.902529
 20
176.159147
 30
0.0
 11
1140.855603
 21
167.206073
 31
0.0
  0
CIRCLE
  5
D1
330
30
100
AcDbEntity
  8
LC-001-111-----0
 62
   253
370
    25
100
AcDbCircle
 10
946.345603
 20
176.159147
 30
0.0
 40
13.89000000000002
  0
LINE
  5
D2
330
30
100
AcDbEntity
  8
LC-001-111-----0
 62
   253
370
    25
100
AcDbLine
 10
890.335603
 20
158.649147
 30
0.0
 11
893.855603
 21
158.649147
 31
0.0
  0
LINE
  5
D3
330
30
100
AcDbEntity
  8
LC-001-111-----0
 62
   253
370
    25
100
AcDbLine
 10
893.855603
 20
158.649147
 30
0.0
 11
893.855603
 21
193.669147
 31
0.0
  0
ARC
  5
D4
330
30
100
AcDbEntity
  8
LC-001-111-----0
 62
   253
370
    25
100
AcDbCircle
 10
758.906662
 20
168.924866
 30
0.0
 40
20.55472179307891
100
AcDbArc
 50
57.190491
 51
90.951212
  0
ARC
  5
D5
330
30
100
AcDbEntity
  8
LC-001-111-----0
 62
   253
370
    25
100
AcDbCircle
 10
761.779647
 20
167.692822
 30
0.0
 40
12.23104525444841
100
AcDbArc
 50
274.343327
 51
74.255463
  0
LINE
  5
D6
330
30
100
AcDbEntity
  8
LC-001-111-----0
 62
   253
370
    25
100
AcDbLine
 10
893.855603
 20
193.669147
 30
0.0
 11
890.335603
 21
193.669147
 31
0.0
  0
LINE
  5
D7
330
30
100
AcDbEntity
  8
LC-001-111-----0
 62
   253
370
    25
100
AcDbLine
 10
890.335603
 20
193.669147
 30
0.0
 11
890.335603
 21
158.649147
 31
0.0
  0
LINE
  5
D8
330
30
100
AcDbEntity
  8
LC-001-111-----0
 62
   253
370
    25
100
AcDbLine
 10
890.335603
 20
176.159147
 30
0.0
 11
869.355603
 21
176.159147
 31
0.0
  0
LINE
  5
D9
330
30
100
AcDbEntity
  8
LC-001-111-----0
 62
   253
370
    25
100
AcDbLine
 10
869.355603
 20
158.649147
 30
0.0
 11
869.355603
 21
193.669147
 31
0.0
  0
LINE
  5
DA
330
30
100
AcDbEntity
  8
LC-001-111-----0
 62
   253
370
    25
100
AcDbLine
 10
869.355603
 20
193.669147
 30
0.0
 11
865.835603
 21
193.669147
 31
0.0
  0
LINE
  5
DB
330
30
100
AcDbEntity
  8
LC-001-111-----0
 62
   253
370
    25
100
AcDbLine
 10
865.835603
 20
193.669147
 30
0.0
 11
865.835603
 21
158.649147
 31
0.0
  0
LINE
  5
DC
330
30
100
AcDbEntity
  8
LC-001-111-----0
 62
   253
370
    25
100
AcDbLine
 10
867.595603
 20
192.169147
 30
0.0
 11
867.595603
 21
160.149147
 31
0.0
  0
CIRCLE
  5
DD
330
30
100
AcDbEntity
  8
LC-001-111-----0
 62
   253
370
    25
100
AcDbCircle
 10
946.345603
 20
176.159147
 30
0.0
 40
15.38999999999984
  0
LINE
  5
DE
330
30
100
AcDbEntity
  8
LC-001-111-----0
 62
   253
370
    25
100
AcDbLine
 10
1072.679261
 20
176.159147
 30
0.0
 11
1088.520928
 21
157.149147
 31
0.0
  0
LINE
  5
DF
330
30
100
AcDbEntity
  8
LC-001-111-----0
 62
   253
370
    25
100
AcDbLine
 10
1088.520928
 20
157.149147
 30
0.0
 11
1096.09687
 21
157.149147
 31
0.0
  0
LINE
  5
E0
330
30
100
AcDbEntity
  8
LC-001-111-----0
 62
   253
370
    25
100
AcDbLine
 10
1096.09687
 20
157.149147
 30
0.0
 11
1080.255204
 21
176.159147
 31
0.0
  0
LINE
  5
E1
330
30
100
AcDbEntity
  8
LC-001-111-----0
 62
   253
370
    25
100
AcDbLine
 10
770.044191
 20
186.20063
 30
0.0
 11
770.044191
 21
193.903002
 31
0.0
  0
ARC
  5
E2
330
30
100
AcDbEntity
  8
LC-001-111-----0
 62
   253
370
    25
100
AcDbCircle
 10
761.412387
 20
186.963179
 30
0.0
 40
23.54367341134796
100
AcDbArc
 50
232.518913
 51
268.246912
  0
ARC
  5
E3
330
30
100
AcDbEntity
  8
LC-001-111-----0
 62
   253
370
    25
100
AcDbCircle
 10
760.836588
 20
168.15034
 30
0.0
 40
4.722024781007908
100
AcDbArc
 50
268.246912
 51
72.731329
  0
LINE
  5
E4
330
30
100
AcDbEntity
  8
LC-001-111-----0
 62
   253
370
    25
100
AcDbLine
 10
757.542274
 20
181.595277
 30
0.0
 11
765.098525
 21
179.464972
 31
0.0
  0
ARC
  5
E5
330
30
100
AcDbEntity
  8
LC-001-111-----0
 62
   253
370
    25
100
AcDbCircle
 10
758.632108
 20
185.460948
 30
0.0
 40
4.016360130100384
100
AcDbArc
 50
90.951212
 51
254.255463
  0
ARC
  5
E6
330
30
100
AcDbEntity
  8
LC-001-111-----0
 62
   253
370
    25
100
AcDbCircle
 10
758.032826
 20
185.671748
 30
0.0
 40
11.17727081470983
100
AcDbArc
 50
94.48185
 51
252.731329
  0
LINE
  5
E7
330
30
100
AcDbEntity
  8
LC-001-111-----0
 62
   253
370
    25
100
AcDbLine
 10
762.238334
 20
172.659511
 30
0.0
 11
754.714822
 21
174.998312
 31
0.0
  0
LINE
  5
E8
330
30
100
AcDbEntity
  8
LC-001-111-----0
 62
   253
370
    25
100
AcDbLine
 10
747.086073
 20
168.279997
 30
0.0
 11
747.086073
 21
159.524163
 31
0.0
  0
ARC
  5
E9
330
30
100
AcDbEntity
  8
LC-001-111-----0
 62
   253
370
    25
100
AcDbCircle
 10
758.903191
 20
174.567744
 30
0.0
 40
22.31533311668187
100
AcDbArc
 50
60.049399
 51
94.48185
  0
ARC
  5
EA
330
30
100
AcDbEntity
  8
LC-001-111-----0
 62
   253
370
    25
100
AcDbCircle
 10
760.81067
 20
180.45076
 30
0.0
 40
25.02572762426604
100
AcDbArc
 50
236.741348
 51
274.343327
  0
LINE
  5
EB
330
30
100
AcDbEntity
  8
LC-001-111-----0
 62
   253
370
    25
100
AcDbLine
 10
1080.255204
 20
176.159147
 30
0.0
 11
1096.09687
 21
195.169147
 31
0.0
  0
LINE
  5
EC
330
30
100
AcDbEntity
  8
LC-001-111-----0
 62
   253
370
    25
100
AcDbLine
 10
750.086073
 20
162.957321
 30
0.0
 11
750.086073
 21
161.212369
 31
0.0
  0
LINE
  5
ED
330
30
100
AcDbEntity
  8
LC-001-111-----0
 62
   253
370
    25
100
AcDbLine
 10
1078.302641
 20
176.159147
 30
0.0
 11
1092.894308
 21
193.669147
 31
0.0
  0
LINE
  5
EE
330
30
100
AcDbEntity
  8
LC-002-002-----0
 62
     1
370
    25
100
AcDbLine
 10
1139.355603
 20
170.827393
 30
0.0
 11
1139.355603
 21
181.490901
 31
0.0
  0
LINE
  5
EF
330
30
100
AcDbEntity
  8
LC-002-002-----0
 62
     1
370
    25
100
AcDbLine
 10
1139.355603
 20
181.490901
 30
0.0
 11
1134.023849
 21
176.159147
 31
0.0
  0
LINE
  5
F0
330
30
100
AcDbEntity
  8
LC-002-002-----0
 62
     1
370
    25
100
AcDbLine
 10
1134.023849
 20
176.159147
 30
0.0
 11
1139.355603
 21
170.827393
 31
0.0
  0
LINE
  5
F1
330
30
100
AcDbEntity
  8
LC-002-002-----0
 62
     1
370
    25
100
AcDbLine
 10
1137.855603
 20
174.448713
 30
0.0
 11
1137.855603
 21
177.869581
 31
0.0
  0
LINE
  5
F2
330
30
100
AcDbEntity
  8
LC-002-002-----0
 62
     1
370
    25
100
AcDbLine
 10
1137.855603
 20
177.869581
 30
0.0
 11
1136.145169
 21
176.159147
 31
0.0
  0
LINE
  5
F3
330
30
100
AcDbEntity
  8
LC-002-002-----0
 62
     1
370
    25
100
AcDbLine
 10
1136.145169
 20
176.159147
 30
0.0
 11
1137.855603
 21
174.448713
 31
0.0
  0
LINE
  5
F4
330
30
100
AcDbEntity
  8
LC-001-111-----0
 62
   253
370
    25
100
AcDbLine
 10
1092.894308
 20
193.669147
 30
0.0
 11
1089.22349
 21
193.669147
 31
0.0
  0
LINE
  5
F5
330
30
100
AcDbEntity
  8
LC-001-111-----0
 62
   253
370
    25
100
AcDbLine
 10
1089.22349
 20
193.669147
 30
0.0
 11
1074.631824
 21
176.159147
 31
0.0
  0
ARC
  5
F6
330
30
100
AcDbEntity
  8
LC-001-111-----0
 62
   253
370
    25
100
AcDbCircle
 10
1019.845603
 20
176.159147
 30
0.0
 40
15.38999999999992
100
AcDbArc
 50
76.816519
 51
283.183481
  0
LINE
  5
F7
330
30
100
AcDbEntity
  8
LC-001-111-----0
 62
   253
370
    25
100
AcDbLine
 10
1074.631824
 20
176.159147
 30
0.0
 11
1089.22349
 21
158.649147
 31
0.0
  0
LINE
  5
F8
330
30
100
AcDbEntity
  8
LC-001-111-----0
 62
   253
370
    25
100
AcDbLine
 10
1089.22349
 20
158.649147
 30
0.0
 11
1092.894308
 21
158.649147
 31
0.0
  0
LINE
  5
F9
330
30
100
AcDbEntity
  8
LC-001-111-----0
 62
   253
370
    25
100
AcDbLine
 10
1092.894308
 20
158.649147
 30
0.0
 11
1078.302641
 21
176.159147
 31
0.0
  0
LINE
  5
FA
330
30
100
AcDbEntity
  8
LC-001-111-----0
 62
   253
370
    25
100
AcDbLine
 10
1076.467232
 20
176.159147
 30
0.0
 11
1090.098623
 21
192.516815
 31
0.0
  0
LINE
  5
FB
330
30
100
AcDbEntity
  8
LC-001-111-----0
 62
   253
370
    25
100
AcDbLine
 10
1076.467232
 20
176.159147
 30
0.0
 11
1090.098623
 21
159.801479
 31
0.0
  0
ARC
  5
FC
330
30
100
AcDbEntity
  8
LC-001-111-----0
 62
   253
370
    25
100
AcDbCircle
 10
760.81067
 20
180.45076
 30
0.0
 40
22.02572762426587
100
AcDbArc
 50
240.862164
 51
274.343327
  0
ARC
  5
FD
330
30
100
AcDbEntity
  8
LC-001-111-----0
 62
   253
370
    25
100
AcDbCircle
 10
761.779647
 20
167.692822
 30
0.0
 40
9.231045254448425
100
AcDbArc
 50
274.343327
 51
74.255463
  0
LINE
  5
FE
330
30
100
AcDbEntity
  8
LC-001-111-----0
 62
   253
370
    25
100
AcDbLine
 10
764.284479
 20
176.577529
 30
0.0
 11
756.728228
 21
178.707834
 31
0.0
  0
ARC
  5
FF
330
30
100
AcDbEntity
  8
LC-001-111-----0
 62
   253
370
    25
100
AcDbCircle
 10
758.632108
 20
185.460948
 30
0.0
 40
7.016360130100396
100
AcDbArc
 50
90.951212
 51
254.255463
  0
ARC
  5
100
330
30
100
AcDbEntity
  8
LC-001-111-----0
 62
   253
370
    25
100
AcDbCircle
 10
758.906662
 20
168.924866
 30
0.0
 40
23.55472179307856
100
AcDbArc
 50
69.789306
 51
90.951212
  0
LINE
  5
101
330
30
100
AcDbEntity
  8
LC-001-111-----0
 62
   253
370
    25
100
AcDbLine
 10
767.044191
 20
191.029289
 30
0.0
 11
767.044191
 21
192.083629
 31
0.0
  0
ENDBLK
  5
32
330
30
100
AcDbEntity
  8
0
100
AcDbBlockEnd
  0
BLOCK
  5
236
330
235
100
AcDbEntity
  8
0
100
AcDbBlockBegin
  2
POLY1
 70
     0
 71
     0
 10
0.0
 20
0.0
 30
0.0
  3
POLY1
  1

  4
POLY1
  0
LINE
  5
239
330
235
100
AcDbEntity
  8
LC-006-100-D00-0
 62
     6
370
    25
100
AcDbLine
 10
1052.71458
 20
2244.896165
 30
0.0
 11
1052.71458
 21
2244.896165
 31
0.0
  0
LINE
  5
23A
330
235
100
AcDbEntity
  8
LC-006-100-D00-0
 62
     6
370
    25
100
AcDbLine
 10
1052.71458
 20
2244.896165
 30
0.0
 11
1052.716543
 21
2244.876415
 31
0.0
  0
LINE
  5
23B
330
235
100
AcDbEntity
  8
LC-006-100-D00-0
 62
     6
370
    25
100
AcDbLine
 10
1052.716543
 20
2244.876415
 30
0.0
 11
1052.716543
 21
2244.876415
 31
0.0
  0
LINE
  5
23C
330
235
100
AcDbEntity
  8
LC-006-100-D00-0
 62
     6
370
    25
100
AcDbLine
 10
1052.716543
 20
2244.876415
 30
0.0
 11
1052.716543
 21
2244.846919
 31
0.0
  0
LINE
  5
23D
330
235
100
AcDbEntity
  8
LC-006-100-D00-0
 62
     6
370
    25
100
AcDbLine
 10
1052.716543
 20
2244.846919
 30
0.0
 11
1052.716543
 21
2244.846919
 31
0.0
  0
LINE
  5
23E
330
235
100
AcDbEntity
  8
LC-006-100-D00-0
 62
     6
370
    25
100
AcDbLine
 10
1052.716543
 20
2244.846919
 30
0.0
 11
1052.71458
 21
2244.811012
 31
0.0
  0
ENDBLK
  5
237
330
235
100
AcDbEntity
  8
0
100
AcDbBlockEnd
  0
BLOCK
  5
277
330
276
100
AcDbEntity
  8
0
100
AcDbBlockBegin
  2
POLY2
 70
     0
 71
     0
 10
0.0
 20
0.0
 30
0.0
  3
POLY2
  1

  4
POLY2
  0
LINE
  5
279
330
276
100
AcDbEntity
  8
LC-002-002-----0
 62
     7
370
    25
100
AcDbLine
 10
1005.518608
 20
2271.515384
 30
0.0
 11
1005.518608
 21
2271.515384
 31
0.0
  0
LINE
  5
27A
330
276
100
AcDbEntity
  8
LC-002-002-----0
 62
     7
370
    25
100
AcDbLine
 10
1005.518608
 20
2271.515384
 30
0.0
 11
1005.003834
 21
2271.456446
 31
0.0
  0
LINE
  5
27B
330
276
100
AcDbEntity
  8
LC-002-002-----0
 62
     7
370
    25
100
AcDbLine
 10
1005.003834
 20
2271.456446
 30
0.0
 11
1005.003834
 21
2271.456446
 31
0.0
  0
LINE
  5
27C
330
276
100
AcDbEntity
  8
LC-002-002-----0
 62
     7
370
    25
100
AcDbLine
 10
1005.003834
 20
2271.456446
 30
0.0
 11
1004.522477
 21
2271.2829
 31
0.0
  0
LINE
  5
27D
330
276
100
AcDbEntity
  8
LC-002-002-----0
 62
     7
370
    25
100
AcDbLine
 10
1004.522477
 20
2271.2829
 30
0.0
 11
1004.522477
 21
2271.2829
 31
0.0
  0
LINE
  5
27E
330
276
100
AcDbEntity
  8
LC-002-002-----0
 62
     7
370
    25
100
AcDbLine
 10
1004.522477
 20
2271.2829
 30
0.0
 11
1004.10891
 21
2271.006765
 31
0.0
  0
LINE
  5
27F
330
276
100
AcDbEntity
  8
LC-002-002-----0
 62
     7
370
    25
100
AcDbLine
 10
1004.10891
 20
2271.006765
 30
0.0
 11
1004.10891
 21
2271.006765
 31
0.0
  0
LINE
  5
280
330
276
100
AcDbEntity
  8
LC-002-002-----0
 62
     7
370
    25
100
AcDbLine
 10
1004.10891
 20
2271.006765
 30
0.0
 11
1003.789964
 21
2270.645419
 31
0.0
  0
LINE
  5
281
330
276
100
AcDbEntity
  8
LC-002-002-----0
 62
     7
370
    25
100
AcDbLine
 10
1003.789964
 20
2270.645419
 30
0.0
 11
1003.789964
 21
2270.645419
 31
0.0
  0
LINE
  5
282
330
276
100
AcDbEntity
  8
LC-002-002-----0
 62
     7
370
    25
100
AcDbLine
 10
1003.789964
 20
2270.645419
 30
0.0
 11
1003.588001
 21
2270.222032
 31
0.0
  0
LINE
  5
283
330
276
100
AcDbEntity
  8
LC-002-002-----0
 62
     7
370
    25
100
AcDbLine
 10
1003.588001
 20
2270.222032
 30
0.0
 11
1003.588001
 21
2270.222032
 31
0.0
  0
LINE
  5
284
330
276
100
AcDbEntity
  8
LC-002-002-----0
 62
     7
370
    25
100
AcDbLine
 10
1003.588001
 20
2270.222032
 30
0.0
 11
1003.518608
 21
2269.76455
 31
0.0
  0
ENDBLK
  5
278
330
276
100
AcDbEntity
  8
0
100
AcDbBlockEnd
  0
BLOCK
  5
287
330
286
100
AcDbEntity
  8
0
100
AcDbBlockBegin
  2
POLY3
 70
     0
 71
     0
 10
0.0
 20
0.0
 30
0.0
  3
POLY3
  1

  4
POLY3
  0
LINE
  5
289
330
286
100
AcDbEntity
  8
LC-002-002-----0
 62
     7
370
    25
100
AcDbLine
 10
1005.518608
 20
2225.090422
 30
0.0
 11
1005.518608
 21
2225.090422
 31
0.0
  0
LINE
  5
28A
330
286
100
AcDbEntity
  8
LC-002-002-----0
 62
     7
370
    25
100
AcDbLine
 10
1005.518608
 20
2225.090422
 30
0.0
 11
1005.003834
 21
2225.14936
 31
0.0
  0
LINE
  5
28B
330
286
100
AcDbEntity
  8
LC-002-002-----0
 62
     7
370
    25
100
AcDbLine
 10
1005.003834
 20
2225.14936
 30
0.0
 11
1005.003834
 21
2225.14936
 31
0.0
  0
LINE
  5
28C
330
286
100
AcDbEntity
  8
LC-002-002-----0
 62
     7
370
    25
100
AcDbLine
 10
1005.003834
 20
2225.14936
 30
0.0
 11
1004.522477
 21
2225.322905
 31
0.0
  0
LINE
  5
28D
330
286
100
AcDbEntity
  8
LC-002-002-----0
 62
     7
370
    25
100
AcDbLine
 10
1004.522477
 20
2225.322905
 30
0.0
 11
1004.522477
 21
2225.322905
 31
0.0
  0
LINE
  5
28E
330
286
100
AcDbEntity
  8
LC-002-002-----0
 62
     7
370
    25
100
AcDbLine
 10
1004.522477
 20
2225.322905
 30
0.0
 11
1004.108909
 21
2225.599041
 31
0.0
  0
LINE
  5
28F
330
286
100
AcDbEntity
  8
LC-002-002-----0
 62
     7
370
    25
100
AcDbLine
 10
1004.108909
 20
2225.599041
 30
0.0
 11
1004.108909
 21
2225.599041
 31
0.0
  0
LINE
  5
290
330
286
100
AcDbEntity
  8
LC-002-002-----0
 62
     7
370
    25
100
AcDbLine
 10
1004.108909
 20
2225.599041
 30
0.0
 11
1003.789964
 21
2225.960386
 31
0.0
  0
LINE
  5
291
330
286
100
AcDbEntity
  8
LC-002-002-----0
 62
     7
370
    25
100
AcDbLine
 10
1003.789964
 20
2225.960386
 30
0.0
 11
1003.789964
 21
2225.960386
 31
0.0
  0
LINE
  5
292
330
286
100
AcDbEntity
  8
LC-002-002-----0
 62
     7
370
    25
100
AcDbLine
 10
1003.789964
 20
2225.960386
 30
0.0
 11
1003.588001
 21
2226.383773
 31
0.0
  0
LINE
  5
293
330
286
100
AcDbEntity
  8
LC-002-002-----0
 62
     7
370
    25
100
AcDbLine
 10
1003.588001
 20
2226.383773
 30
0.0
 11
1003.588001
 21
2226.383773
 31
0.0
  0
LINE
  5
294
330
286
100
AcDbEntity
  8
LC-002-002-----0
 62
     7
370
    25
100
AcDbLine
 10
1003.588001
 20
2226.383773
 30
0.0
 11
1003.518608
 21
2226.841255
 31
0.0
  0
ENDBLK
  5
288
330
286
100
AcDbEntity
  8
0
100
AcDbBlockEnd
  0
BLOCK
  5
298
330
297
100
AcDbEntity
  8
0
100
AcDbBlockBegin
  2
POLY4
 70
     0
 71
     0
 10
0.0
 20
0.0
 30
0.0
  3
POLY4
  1

  4
POLY4
  0
LINE
  5
29A
330
297
100
AcDbEntity
  8
LC-002-002-----0
 62
     7
370
    25
100
AcDbLine
 10
1005.518608
 20
2248.302903
 30
0.0
 11
1005.518608
 21
2248.302903
 31
0.0
  0
LINE
  5
29B
330
297
100
AcDbEntity
  8
LC-002-002-----0
 62
     7
370
    25
100
AcDbLine
 10
1005.518608
 20
2248.302903
 30
0.0
 11
1005.00382
 21
2248.302936
 31
0.0
  0
LINE
  5
29C
330
297
100
AcDbEntity
  8
LC-002-002-----0
 62
     7
370
    25
100
AcDbLine
 10
1005.00382
 20
2248.302936
 30
0.0
 11
1005.00382
 21
2248.302936
 31
0.0
  0
LINE
  5
29D
330
297
100
AcDbEntity
  8
LC-002-002-----0
 62
     7
370
    25
100
AcDbLine
 10
1005.00382
 20
2248.302936
 30
0.0
 11
1004.52245
 21
2248.3029
 31
0.0
  0
LINE
  5
29E
330
297
100
AcDbEntity
  8
LC-002-002-----0
 62
     7
370
    25
100
AcDbLine
 10
1004.52245
 20
2248.3029
 30
0.0
 11
1004.52245
 21
2248.3029
 31
0.0
  0
LINE
  5
29F
330
297
100
AcDbEntity
  8
LC-002-002-----0
 62
     7
370
    25
100
AcDbLine
 10
1004.52245
 20
2248.3029
 30
0.0
 11
1004.108879
 21
2248.302906
 31
0.0
  0
LINE
  5
2A0
330
297
100
AcDbEntity
  8
LC-002-002-----0
 62
     7
370
    25
100
AcDbLine
 10
1004.108879
 20
2248.302906
 30
0.0
 11
1004.108879
 21
2248.302906
 31
0.0
  0
LINE
  5
2A1
330
297
100
AcDbEntity
  8
LC-002-002-----0
 62
     7
370
    25
100
AcDbLine
 10
1004.108879
 20
2248.302906
 30
0.0
 11
1003.789943
 21
2248.302881
 31
0.0
  0
LINE
  5
2A2
330
297
100
AcDbEntity
  8
LC-002-002-----0
 62
     7
370
    25
100
AcDbLine
 10
1003.789943
 20
2248.302881
 30
0.0
 11
1003.789943
 21
2248.302881
 31
0.0
  0
LINE
  5
2A3
330
297
100
AcDbEntity
  8
LC-002-002-----0
 62
     7
370
    25
100
AcDbLine
 10
1003.789943
 20
2248.302881
 30
0.0
 11
1003.587987
 21
2248.30293
 31
0.0
  0
LINE
  5
2A4
330
297
100
AcDbEntity
  8
LC-002-002-----0
 62
     7
370
    25
100
AcDbLine
 10
1003.587987
 20
2248.30293
 30
0.0
 11
1003.587987
 21
2248.30293
 31
0.0
  0
LINE
  5
2A5
330
297
100
AcDbEntity
  8
LC-002-002-----0
 62
     7
370
    25
100
AcDbLine
 10
1003.587987
 20
2248.30293
 30
0.0
 11
1003.518608
 21
2248.302911
 31
0.0
  0
ENDBLK
  5
299
330
297
100
AcDbEntity
  8
0
100
AcDbBlockEnd
  0
BLOCK
  5
311
330
310
100
AcDbEntity
  8
0
100
AcDbBlockBegin
  2
*X16
 70
     1
 71
     0
 10
0.0
 20
0.0
 30
0.0
  3
*X16
  1

  4
*X1
  0
LINE
  5
314
330
310
100
AcDbEntity
  8
LC-007-005-----0
 62
     7
370
    25
100
AcDbLine
 10
1344.020608
 20
2531.96
 30
0.0
 11
1356.170319
 21
2544.109711
 31
0.0
  0
LINE
  5
315
330
310
100
AcDbEntity
  8
LC-007-005-----0
 62
     7
370
    25
100
AcDbLine
 10
1301.594201
 20
2531.96
 30
0.0
 11
1339.594201
 21
2569.96
 31
0.0
  0
LINE
  5
316
330
310
100
AcDbEntity
  8
LC-007-005-----0
 62
     7
370
    25
100
AcDbLine
 10
1282.77898
 20
2555.571186
 30
0.0
 11
1297.167794
 21
2569.96
 31
0.0
  0
LINE
  5
317
330
310
100
AcDbEntity
  8
LC-007-005-----0
 62
     7
370
    25
100
AcDbLine
 10
453.066063
 20
2531.96
 30
0.0
 11
464.57898
 21
2543.472916
 31
0.0
  0
LINE
  5
318
330
310
100
AcDbEntity
  8
LC-007-005-----0
 62
     7
370
    25
100
AcDbLine
 10
410.639656
 20
2531.96
 30
0.0
 11
448.639656
 21
2569.96
 31
0.0
  0
LINE
  5
319
330
310
100
AcDbEntity
  8
LC-007-005-----0
 62
     7
370
    25
100
AcDbLine
 10
391.011973
 20
2554.758723
 30
0.0
 11
406.21325
 21
2569.96
 31
0.0
  0
ENDBLK
  5
312
330
310
100
AcDbEntity
  8
0
100
AcDbBlockEnd
  0
BLOCK
  5
369
330
368
100
AcDbEntity
  8
0
100
AcDbBlockBegin
  2
POLY5
 70
     0
 71
     0
 10
0.0
 20
0.0
 30
0.0
  3
POLY5
  1

  4
POLY5
  0
LINE
  5
36B
330
368
100
AcDbEntity
  8
LC-002-002-----0
 62
     7
370
    25
100
AcDbLine
 10
1564.293511
 20
1908.6
 30
0.0
 11
1564.293511
 21
1908.6
 31
0.0
  0
LINE
  5
36C
330
368
100
AcDbEntity
  8
LC-002-002-----0
 62
     7
370
    25
100
AcDbLine
 10
1564.293511
 20
1908.6
 30
0.0
 11
1564.234572
 21
1908.085227
 31
0.0
  0
LINE
  5
36D
330
368
100
AcDbEntity
  8
LC-002-002-----0
 62
     7
370
    25
100
AcDbLine
 10
1564.234572
 20
1908.085227
 30
0.0
 11
1564.234572
 21
1908.085227
 31
0.0
  0
LINE
  5
36E
330
368
100
AcDbEntity
  8
LC-002-002-----0
 62
     7
370
    25
100
AcDbLine
 10
1564.234572
 20
1908.085227
 30
0.0
 11
1564.061027
 21
1907.603869
 31
0.0
  0
LINE
  5
36F
330
368
100
AcDbEntity
  8
LC-002-002-----0
 62
     7
370
    25
100
AcDbLine
 10
1564.061027
 20
1907.603869
 30
0.0
 11
1564.061027
 21
1907.603869
 31
0.0
  0
LINE
  5
370
330
368
100
AcDbEntity
  8
LC-002-002-----0
 62
     7
370
    25
100
AcDbLine
 10
1564.061027
 20
1907.603869
 30
0.0
 11
1563.784892
 21
1907.190302
 31
0.0
  0
LINE
  5
371
330
368
100
AcDbEntity
  8
LC-002-002-----0
 62
     7
370
    25
100
AcDbLine
 10
1563.784892
 20
1907.190302
 30
0.0
 11
1563.784892
 21
1907.190302
 31
0.0
  0
LINE
  5
372
330
368
100
AcDbEntity
  8
LC-002-002-----0
 62
     7
370
    25
100
AcDbLine
 10
1563.784892
 20
1907.190302
 30
0.0
 11
1563.423546
 21
1906.871356
 31
0.0
  0
LINE
  5
373
330
368
100
AcDbEntity
  8
LC-002-002-----0
 62
     7
370
    25
100
AcDbLine
 10
1563.423546
 20
1906.871356
 30
0.0
 11
1563.423546
 21
1906.871356
 31
0.0
  0
LINE
  5
374
330
368
100
AcDbEntity
  8
LC-002-002-----0
 62
     7
370
    25
100
AcDbLine
 10
1563.423546
 20
1906.871356
 30
0.0
 11
1563.000159
 21
1906.669393
 31
0.0
  0
LINE
  5
375
330
368
100
AcDbEntity
  8
LC-002-002-----0
 62
     7
370
    25
100
AcDbLine
 10
1563.000159
 20
1906.669393
 30
0.0
 11
1563.000159
 21
1906.669393
 31
0.0
  0
LINE
  5
376
330
368
100
AcDbEntity
  8
LC-002-002-----0
 62
     7
370
    25
100
AcDbLine
 10
1563.000159
 20
1906.669393
 30
0.0
 11
1562.542677
 21
1906.6
 31
0.0
  0
ENDBLK
  5
36A
330
368
100
AcDbEntity
  8
0
100
AcDbBlockEnd
  0
BLOCK
  5
37A
330
379
100
AcDbEntity
  8
0
100
AcDbBlockBegin
  2
POLY6
 70
     0
 71
     0
 10
0.0
 20
0.0
 30
0.0
  3
POLY6
  1

  4
POLY6
  0
LINE
  5
37C
330
379
100
AcDbEntity
  8
LC-002-002-----0
 62
     7
370
    25
100
AcDbLine
 10
1541.081029
 20
1908.6
 30
0.0
 11
1541.081029
 21
1908.6
 31
0.0
  0
LINE
  5
37D
330
379
100
AcDbEntity
  8
LC-002-002-----0
 62
     7
370
    25
100
AcDbLine
 10
1541.081029
 20
1908.6
 30
0.0
 11
1541.081063
 21
1908.085212
 31
0.0
  0
LINE
  5
37E
330
379
100
AcDbEntity
  8
LC-002-002-----0
 62
     7
370
    25
100
AcDbLine
 10
1541.081063
 20
1908.085212
 30
0.0
 11
1541.081063
 21
1908.085212
 31
0.0
  0
LINE
  5
37F
330
379
100
AcDbEntity
  8
LC-002-002-----0
 62
     7
370
    25
100
AcDbLine
 10
1541.081063
 20
1908.085212
 30
0.0
 11
1541.081026
 21
1907.603842
 31
0.0
  0
LINE
  5
380
330
379
100
AcDbEntity
  8
LC-002-002-----0
 62
     7
370
    25
100
AcDbLine
 10
1541.081026
 20
1907.603842
 30
0.0
 11
1541.081026
 21
1907.603842
 31
0.0
  0
LINE
  5
381
330
379
100
AcDbEntity
  8
LC-002-002-----0
 62
     7
370
    25
100
AcDbLine
 10
1541.081026
 20
1907.603842
 30
0.0
 11
1541.081033
 21
1907.190272
 31
0.0
  0
LINE
  5
382
330
379
100
AcDbEntity
  8
LC-002-002-----0
 62
     7
370
    25
100
AcDbLine
 10
1541.081033
 20
1907.190272
 30
0.0
 11
1541.081033
 21
1907.190272
 31
0.0
  0
LINE
  5
383
330
379
100
AcDbEntity
  8
LC-002-002-----0
 62
     7
370
    25
100
AcDbLine
 10
1541.081033
 20
1907.190272
 30
0.0
 11
1541.081008
 21
1906.871335
 31
0.0
  0
LINE
  5
384
330
379
100
AcDbEntity
  8
LC-002-002-----0
 62
     7
370
    25
100
AcDbLine
 10
1541.081008
 20
1906.871335
 30
0.0
 11
1541.081008
 21
1906.871335
 31
0.0
  0
LINE
  5
385
330
379
100
AcDbEntity
  8
LC-002-002-----0
 62
     7
370
    25
100
AcDbLine
 10
1541.081008
 20
1906.871335
 30
0.0
 11
1541.081056
 21
1906.669379
 31
0.0
  0
LINE
  5
386
330
379
100
AcDbEntity
  8
LC-002-002-----0
 62
     7
370
    25
100
AcDbLine
 10
1541.081056
 20
1906.669379
 30
0.0
 11
1541.081056
 21
1906.669379
 31
0.0
  0
LINE
  5
387
330
379
100
AcDbEntity
  8
LC-002-002-----0
 62
     7
370
    25
100
AcDbLine
 10
1541.081056
 20
1906.669379
 30
0.0
 11
1541.081038
 21
1906.6
 31
0.0
  0
ENDBLK
  5
37B
330
379
100
AcDbEntity
  8
0
100
AcDbBlockEnd
  0
BLOCK
  5
38B
330
38A
100
AcDbEntity
  8
0
100
AcDbBlockBegin
  2
POLY7
 70
     0
 71
     0
 10
0.0
 20
0.0
 30
0.0
  3
POLY7
  1

  4
POLY7
  0
LINE
  5
38D
330
38A
100
AcDbEntity
  8
LC-002-002-----0
 62
     7
370
    25
100
AcDbLine
 10
1517.868548
 20
1908.6
 30
0.0
 11
1517.868548
 21
1908.6
 31
0.0
  0
LINE
  5
38E
330
38A
100
AcDbEntity
  8
LC-002-002-----0
 62
     7
370
    25
100
AcDbLine
 10
1517.868548
 20
1908.6
 30
0.0
 11
1517.927487
 21
1908.085227
 31
0.0
  0
LINE
  5
38F
330
38A
100
AcDbEntity
  8
LC-002-002-----0
 62
     7
370
    25
100
AcDbLine
 10
1517.927487
 20
1908.085227
 30
0.0
 11
1517.927487
 21
1908.085227
 31
0.0
  0
LINE
  5
390
330
38A
100
AcDbEntity
  8
LC-002-002-----0
 62
     7
370
    25
100
AcDbLine
 10
1517.927487
 20
1908.085227
 30
0.0
 11
1518.101032
 21
1907.603869
 31
0.0
  0
LINE
  5
391
330
38A
100
AcDbEntity
  8
LC-002-002-----0
 62
     7
370
    25
100
AcDbLine
 10
1518.101032
 20
1907.603869
 30
0.0
 11
1518.101032
 21
1907.603869
 31
0.0
  0
LINE
  5
392
330
38A
100
AcDbEntity
  8
LC-002-002-----0
 62
     7
370
    25
100
AcDbLine
 10
1518.101032
 20
1907.603869
 30
0.0
 11
1518.377167
 21
1907.190302
 31
0.0
  0
LINE
  5
393
330
38A
100
AcDbEntity
  8
LC-002-002-----0
 62
     7
370
    25
100
AcDbLine
 10
1518.377167
 20
1907.190302
 30
0.0
 11
1518.377167
 21
1907.190302
 31
0.0
  0
LINE
  5
394
330
38A
100
AcDbEntity
  8
LC-002-002-----0
 62
     7
370
    25
100
AcDbLine
 10
1518.377167
 20
1907.190302
 30
0.0
 11
1518.738513
 21
1906.871356
 31
0.0
  0
LINE
  5
395
330
38A
100
AcDbEntity
  8
LC-002-002-----0
 62
     7
370
    25
100
AcDbLine
 10
1518.738513
 20
1906.871356
 30
0.0
 11
1518.738513
 21
1906.871356
 31
0.0
  0
LINE
  5
396
330
38A
100
AcDbEntity
  8
LC-002-002-----0
 62
     7
370
    25
100
AcDbLine
 10
1518.738513
 20
1906.871356
 30
0.0
 11
1519.1619
 21
1906.669393
 31
0.0
  0
LINE
  5
397
330
38A
100
AcDbEntity
  8
LC-002-002-----0
 62
     7
370
    25
100
AcDbLine
 10
1519.1619
 20
1906.669393
 30
0.0
 11
1519.1619
 21
1906.669393
 31
0.0
  0
LINE
  5
398
330
38A
100
AcDbEntity
  8
LC-002-002-----0
 62
     7
370
    25
100
AcDbLine
 10
1519.1619
 20
1906.669393
 30
0.0
 11
1519.619382
 21
1906.6
 31
0.0
  0
ENDBLK
  5
38C
330
38A
100
AcDbEntity
  8
0
100
AcDbBlockEnd
  0
BLOCK
  5
3AE
330
3AD
100
AcDbEntity
  8
0
100
AcDbBlockBegin
  2
POLY8
 70
     0
 71
     0
 10
0.0
 20
0.0
 30
0.0
  3
POLY8
  1

  4
POLY8
  0
LINE
  5
3B0
330
3AD
100
AcDbEntity
  8
LC-002-002-----0
 62
     7
370
    25
100
AcDbLine
 10
1564.293511
 20
1772.6
 30
0.0
 11
1564.293511
 21
1772.6
 31
0.0
  0
LINE
  5
3B1
330
3AD
100
AcDbEntity
  8
LC-002-002-----0
 62
     7
370
    25
100
AcDbLine
 10
1564.293511
 20
1772.6
 30
0.0
 11
1564.234572
 21
1773.114773
 31
0.0
  0
LINE
  5
3B2
330
3AD
100
AcDbEntity
  8
LC-002-002-----0
 62
     7
370
    25
100
AcDbLine
 10
1564.234572
 20
1773.114773
 30
0.0
 11
1564.234572
 21
1773.114773
 31
0.0
  0
LINE
  5
3B3
330
3AD
100
AcDbEntity
  8
LC-002-002-----0
 62
     7
370
    25
100
AcDbLine
 10
1564.234572
 20
1773.114773
 30
0.0
 11
1564.061027
 21
1773.596131
 31
0.0
  0
LINE
  5
3B4
330
3AD
100
AcDbEntity
  8
LC-002-002-----0
 62
     7
370
    25
100
AcDbLine
 10
1564.061027
 20
1773.596131
 30
0.0
 11
1564.061027
 21
1773.596131
 31
0.0
  0
LINE
  5
3B5
330
3AD
100
AcDbEntity
  8
LC-002-002-----0
 62
     7
370
    25
100
AcDbLine
 10
1564.061027
 20
1773.596131
 30
0.0
 11
1563.784892
 21
1774.009698
 31
0.0
  0
LINE
  5
3B6
330
3AD
100
AcDbEntity
  8
LC-002-002-----0
 62
     7
370
    25
100
AcDbLine
 10
1563.784892
 20
1774.009698
 30
0.0
 11
1563.784892
 21
1774.009698
 31
0.0
  0
LINE
  5
3B7
330
3AD
100
AcDbEntity
  8
LC-002-002-----0
 62
     7
370
    25
100
AcDbLine
 10
1563.784892
 20
1774.009698
 30
0.0
 11
1563.423546
 21
1774.328644
 31
0.0
  0
LINE
  5
3B8
330
3AD
100
AcDbEntity
  8
LC-002-002-----0
 62
     7
370
    25
100
AcDbLine
 10
1563.423546
 20
1774.328644
 30
0.0
 11
1563.423546
 21
1774.328644
 31
0.0
  0
LINE
  5
3B9
330
3AD
100
AcDbEntity
  8
LC-002-002-----0
 62
     7
370
    25
100
AcDbLine
 10
1563.423546
 20
1774.328644
 30
0.0
 11
1563.000159
 21
1774.530607
 31
0.0
  0
LINE
  5
3BA
330
3AD
100
AcDbEntity
  8
LC-002-002-----0
 62
     7
370
    25
100
AcDbLine
 10
1563.000159
 20
1774.530607
 30
0.0
 11
1563.000159
 21
1774.530607
 31
0.0
  0
LINE
  5
3BB
330
3AD
100
AcDbEntity
  8
LC-002-002-----0
 62
     7
370
    25
100
AcDbLine
 10
1563.000159
 20
1774.530607
 30
0.0
 11
1562.542677
 21
1774.6
 31
0.0
  0
ENDBLK
  5
3AF
330
3AD
100
AcDbEntity
  8
0
100
AcDbBlockEnd
  0
BLOCK
  5
3BF
330
3BE
100
AcDbEntity
  8
0
100
AcDbBlockBegin
  2
POLY9
 70
     0
 71
     0
 10
0.0
 20
0.0
 30
0.0
  3
POLY9
  1

  4
POLY9
  0
LINE
  5
3C1
330
3BE
100
AcDbEntity
  8
LC-002-002-----0
 62
     7
370
    25
100
AcDbLine
 10
1541.081029
 20
1772.6
 30
0.0
 11
1541.081029
 21
1772.6
 31
0.0
  0
LINE
  5
3C2
330
3BE
100
AcDbEntity
  8
LC-002-002-----0
 62
     7
370
    25
100
AcDbLine
 10
1541.081029
 20
1772.6
 30
0.0
 11
1541.081063
 21
1773.114788
 31
0.0
  0
LINE
  5
3C3
330
3BE
100
AcDbEntity
  8
LC-002-002-----0
 62
     7
370
    25
100
AcDbLine
 10
1541.081063
 20
1773.114788
 30
0.0
 11
1541.081063
 21
1773.114788
 31
0.0
  0
LINE
  5
3C4
330
3BE
100
AcDbEntity
  8
LC-002-002-----0
 62
     7
370
    25
100
AcDbLine
 10
1541.081063
 20
1773.114788
 30
0.0
 11
1541.081026
 21
1773.596158
 31
0.0
  0
LINE
  5
3C5
330
3BE
100
AcDbEntity
  8
LC-002-002-----0
 62
     7
370
    25
100
AcDbLine
 10
1541.081026
 20
1773.596158
 30
0.0
 11
1541.081026
 21
1773.596158
 31
0.0
  0
LINE
  5
3C6
330
3BE
100
AcDbEntity
  8
LC-002-002-----0
 62
     7
370
    25
100
AcDbLine
 10
1541.081026
 20
1773.596158
 30
0.0
 11
1541.081033
 21
1774.009728
 31
0.0
  0
LINE
  5
3C7
330
3BE
100
AcDbEntity
  8
LC-002-002-----0
 62
     7
370
    25
100
AcDbLine
 10
1541.081033
 20
1774.009728
 30
0.0
 11
1541.081033
 21
1774.009728
 31
0.0
  0
LINE
  5
3C8
330
3BE
100
AcDbEntity
  8
LC-002-002-----0
 62
     7
370
    25
100
AcDbLine
 10
1541.081033
 20
1774.009728
 30
0.0
 11
1541.081008
 21
1774.328665
 31
0.0
  0
LINE
  5
3C9
330
3BE
100
AcDbEntity
  8
LC-002-002-----0
 62
     7
370
    25
100
AcDbLine
 10
1541.081008
 20
1774.328665
 30
0.0
 11
1541.081008
 21
1774.328665
 31
0.0
  0
LINE
  5
3CA
330
3BE
100
AcDbEntity
  8
LC-002-002-----0
 62
     7
370
    25
100
AcDbLine
 10
1541.081008
 20
1774.328665
 30
0.0
 11
1541.081056
 21
1774.530621
 31
0.0
  0
LINE
  5
3CB
330
3BE
100
AcDbEntity
  8
LC-002-002-----0
 62
     7
370
    25
100
AcDbLine
 10
1541.081056
 20
1774.530621
 30
0.0
 11
1541.081056
 21
1774.530621
 31
0.0
  0
LINE
  5
3CC
330
3BE
100
AcDbEntity
  8
LC-002-002-----0
 62
     7
370
    25
100
AcDbLine
 10
1541.081056
 20
1774.530621
 30
0.0
 11
1541.081038
 21
1774.6
 31
0.0
  0
ENDBLK
  5
3C0
330
3BE
100
AcDbEntity
  8
0
100
AcDbBlockEnd
  0
BLOCK
  5
3D0
330
3CF
100
AcDbEntity
  8
0
100
AcDbBlockBegin
  2
POLY10
 70
     0
 71
     0
 10
0.0
 20
0.0
 30
0.0
  3
POLY10
  1

  4
POLY10
  0
LINE
  5
3D2
330
3CF
100
AcDbEntity
  8
LC-002-002-----0
 62
     7
370
    25
100
AcDbLine
 10
1517.868548
 20
1772.6
 30
0.0
 11
1517.868548
 21
1772.6
 31
0.0
  0
LINE
  5
3D3
330
3CF
100
AcDbEntity
  8
LC-002-002-----0
 62
     7
370
    25
100
AcDbLine
 10
1517.868548
 20
1772.6
 30
0.0
 11
1517.927487
 21
1773.114773
 31
0.0
  0
LINE
  5
3D4
330
3CF
100
AcDbEntity
  8
LC-002-002-----0
 62
     7
370
    25
100
AcDbLine
 10
1517.927487
 20
1773.114773
 30
0.0
 11
1517.927487
 21
1773.114773
 31
0.0
  0
LINE
  5
3D5
330
3CF
100
AcDbEntity
  8
LC-002-002-----0
 62
     7
370
    25
100
AcDbLine
 10
1517.927487
 20
1773.114773
 30
0.0
 11
1518.101032
 21
1773.596131
 31
0.0
  0
LINE
  5
3D6
330
3CF
100
AcDbEntity
  8
LC-002-002-----0
 62
     7
370
    25
100
AcDbLine
 10
1518.101032
 20
1773.596131
 30
0.0
 11
1518.101032
 21
1773.596131
 31
0.0
  0
LINE
  5
3D7
330
3CF
100
AcDbEntity
  8
LC-002-002-----0
 62
     7
370
    25
100
AcDbLine
 10
1518.101032
 20
1773.596131
 30
0.0
 11
1518.377167
 21
1774.009698
 31
0.0
  0
LINE
  5
3D8
330
3CF
100
AcDbEntity
  8
LC-002-002-----0
 62
     7
370
    25
100
AcDbLine
 10
1518.377167
 20
1774.009698
 30
0.0
 11
1518.377167
 21
1774.009698
 31
0.0
  0
LINE
  5
3D9
330
3CF
100
AcDbEntity
  8
LC-002-002-----0
 62
     7
370
    25
100
AcDbLine
 10
1518.377167
 20
1774.009698
 30
0.0
 11
1518.738513
 21
1774.328644
 31
0.0
  0
LINE
  5
3DA
330
3CF
100
AcDbEntity
  8
LC-002-002-----0
 62
     7
370
    25
100
AcDbLine
 10
1518.738513
 20
1774.328644
 30
0.0
 11
1518.738513
 21
1774.328644
 31
0.0
  0
LINE
  5
3DB
330
3CF
100
AcDbEntity
  8
LC-002-002-----0
 62
     7
370
    25
100
AcDbLine
 10
1518.738513
 20
1774.328644
 30
0.0
 11
1519.1619
 21
1774.530607
 31
0.0
  0
LINE
  5
3DC
330
3CF
100
AcDbEntity
  8
LC-002-002-----0
 62
     7
370
    25
100
AcDbLine
 10
1519.1619
 20
1774.530607
 30
0.0
 11
1519.1619
 21
1774.530607
 31
0.0
  0
LINE
  5
3DD
330
3CF
100
AcDbEntity
  8
LC-002-002-----0
 62
     7
370
    25
100
AcDbLine
 10
1519.1619
 20
1774.530607
 30
0.0
 11
1519.619382
 21
1774.6
 31
0.0
  0
ENDBLK
  5
3D1
330
3CF
100
AcDbEntity
  8
0
100
AcDbBlockEnd
  0
BLOCK
  5
41E
330
41D
100
AcDbEntity
  8
0
100
AcDbBlockBegin
  2
LCDIM1
 70
     0
 71
     0
 10
0.0
 20
0.0
 30
0.0
  3
LCDIM1
  1

  4
LCDIM1
  0
LINE
  5
421
330
41D
100
AcDbEntity
  8
LC-009-003-MTH-0
 62
     7
370
    25
100
AcDbLine
 10
488.828688
 20
2573.395779
 30
0.0
 11
488.828688
 21
2660.500155
 31
0.0
  0
LINE
  5
422
330
41D
100
AcDbEntity
  8
LC-009-003-MTH-0
 62
     7
370
    25
100
AcDbLine
 10
858.630053
 20
2555.395779
 30
0.0
 11
858.630053
 21
2660.500155
 31
0.0
  0
LINE
  5
424
330
41D
100
AcDbEntity
  8
LC-010-003-MTG-0
 62
     7
370
    25
100
AcDbLine
 10
488.828688
 20
2645.500154
 30
0.0
 11
858.630053
 21
2645.500154
 31
0.0
  0
LINE
  5
426
330
41D
100
AcDbEntity
  8
LC-011-003-----0
 62
     7
370
    25
100
AcDbLine
 10
513.61481
 20
2648.763309
 30
0.0
 11
488.828688
 21
2645.500154
 31
0.0
  0
LINE
  5
427
330
41D
100
AcDbEntity
  8
LC-011-003-----0
 62
     7
370
    25
100
AcDbLine
 10
488.828688
 20
2645.500154
 30
0.0
 11
513.61481
 21
2642.236999
 31
0.0
  0
LINE
  5
428
330
41D
100
AcDbEntity
  8
LC-011-003-----0
 62
     7
370
    25
100
AcDbLine
 10
513.61481
 20
2642.236999
 30
0.0
 11
513.61481
 21
2648.763309
 31
0.0
  0
LINE
  5
429
330
41D
100
AcDbEntity
  8
LC-011-003-----0
 62
     7
370
    25
100
AcDbLine
 10
513.670418
 20
2647.914889
 30
0.0
 11
495.328688
 21
2645.500154
 31
0.0
  0
LINE
  5
42A
330
41D
100
AcDbEntity
  8
LC-011-003-----0
 62
     7
370
    25
100
AcDbLine
 10
495.328688
 20
2645.500154
 30
0.0
 11
513.670418
 21
2643.08542
 31
0.0
  0
LINE
  5
42B
330
41D
100
AcDbEntity
  8
LC-011-003-----0
 62
     7
370
    25
100
AcDbLine
 10
513.726027
 20
2647.066469
 30
0.0
 11
501.828688
 21
2645.500154
 31
0.0
  0
LINE
  5
42C
330
41D
100
AcDbEntity
  8
LC-011-003-----0
 62
     7
370
    25
100
AcDbLine
 10
501.828688
 20
2645.500154
 30
0.0
 11
513.726027
 21
2643.93384
 31
0.0
  0
LINE
  5
42D
330
41D
100
AcDbEntity
  8
LC-011-003-----0
 62
     7
370
    25
100
AcDbLine
 10
513.781635
 20
2646.218048
 30
0.0
 11
508.328688
 21
2645.500154
 31
0.0
  0
LINE
  5
42E
330
41D
100
AcDbEntity
  8
LC-011-003-----0
 62
     7
370
    25
100
AcDbLine
 10
508.328688
 20
2645.500154
 30
0.0
 11
513.781635
 21
2644.78226
 31
0.0
  0
LINE
  5
42F
330
41D
100
AcDbEntity
  8
LC-011-003-----0
 62
     7
370
    25
100
AcDbLine
 10
833.843931
 20
2642.236999
 30
0.0
 11
858.630053
 21
2645.500154
 31
0.0
  0
LINE
  5
430
330
41D
100
AcDbEntity
  8
LC-011-003-----0
 62
     7
370
    25
100
AcDbLine
 10
858.630053
 20
2645.500154
 30
0.0
 11
833.843931
 21
2648.763309
 31
0.0
  0
LINE
  5
431
330
41D
100
AcDbEntity
  8
LC-011-003-----0
 62
     7
370
    25
100
AcDbLine
 10
833.843931
 20
2648.763309
 30
0.0
 11
833.843931
 21
2642.236999
 31
0.0
  0
LINE
  5
432
330
41D
100
AcDbEntity
  8
LC-011-003-----0
 62
     7
370
    25
100
AcDbLine
 10
833.788322
 20
2643.08542
 30
0.0
 11
852.130053
 21
2645.500154
 31
0.0
  0
LINE
  5
433
330
41D
100
AcDbEntity
  8
LC-011-003-----0
 62
     7
370
    25
100
AcDbLine
 10
852.130053
 20
2645.500154
 30
0.0
 11
833.788322
 21
2647.914889
 31
0.0
  0
LINE
  5
434
330
41D
100
AcDbEntity
  8
LC-011-003-----0
 62
     7
370
    25
100
AcDbLine
 10
833.732714
 20
2643.93384
 30
0.0
 11
845.630052
 21
2645.500154
 31
0.0
  0
LINE
  5
435
330
41D
100
AcDbEntity
  8
LC-011-003-----0
 62
     7
370
    25
100
AcDbLine
 10
845.630052
 20
2645.500154
 30
0.0
 11
833.732714
 21
2647.066469
 31
0.0
  0
LINE
  5
436
330
41D
100
AcDbEntity
  8
LC-011-003-----0
 62
     7
370
    25
100
AcDbLine
 10
833.677105
 20
2644.78226
 30
0.0
 11
839.130052
 21
2645.500154
 31
0.0
  0
LINE
  5
437
330
41D
100
AcDbEntity
  8
LC-011-003-----0
 62
     7
370
    25
100
AcDbLine
 10
839.130052
 20
2645.500154
 30
0.0
 11
833.677105
 21
2646.218048
 31
0.0
  0
TEXT
  5
438
330
41D
100
AcDbEntity
  8
LC-011-003-----0
 62
     7
370
    25
100
AcDbText
 10
635.278825
 20
2660.500155
 30
0.0
 40
25.0
  1
14.56
 41
0.7
  7
LCTX0-400-0-0pDIN-Schrift
 72
     1
 11
674.028825
 21
2660.500155
 31
0.0
100
AcDbText
  0
ENDBLK
  5
41F
330
41D
100
AcDbEntity
  8
0
100
AcDbBlockEnd
  0
BLOCK
  5
43B
330
43A
100
AcDbEntity
  8
0
100
AcDbBlockBegin
  2
LCDIM2
 70
     0
 71
     0
 10
0.0
 20
0.0
 30
0.0
  3
LCDIM2
  1

  4
LCDIM2
  0
LINE
  5
43D
330
43A
100
AcDbEntity
  8
LC-009-003-MTH-0
 62
     7
370
    25
100
AcDbLine
 10
888.428688
 20
2555.395779
 30
0.0
 11
888.428688
 21
2659.673672
 31
0.0
  0
LINE
  5
43E
330
43A
100
AcDbEntity
  8
LC-009-003-MTH-0
 62
     7
370
    25
100
AcDbLine
 10
1258.230053
 20
2573.395779
 30
0.0
 11
1258.230053
 21
2659.673672
 31
0.0
  0
LINE
  5
43F
330
43A
100
AcDbEntity
  8
LC-010-003-MTG-0
 62
     7
370
    25
100
AcDbLine
 10
888.428688
 20
2644.673671
 30
0.0
 11
1258.230053
 21
2644.673671
 31
0.0
  0
LINE
  5
440
330
43A
100
AcDbEntity
  8
LC-011-003-----0
 62
     7
370
    25
100
AcDbLine
 10
913.21481
 20
2647.936826
 30
0.0
 11
888.428688
 21
2644.673671
 31
0.0
  0
LINE
  5
441
330
43A
100
AcDbEntity
  8
LC-011-003-----0
 62
     7
370
    25
100
AcDbLine
 10
888.428688
 20
2644.673671
 30
0.0
 11
913.21481
 21
2641.410517
 31
0.0
  0
LINE
  5
442
330
43A
100
AcDbEntity
  8
LC-011-003-----0
 62
     7
370
    25
100
AcDbLine
 10
913.21481
 20
2641.410517
 30
0.0
 11
913.21481
 21
2647.936826
 31
0.0
  0
LINE
  5
443
330
43A
100
AcDbEntity
  8
LC-011-003-----0
 62
     7
370
    25
100
AcDbLine
 10
913.270418
 20
2647.088406
 30
0.0
 11
894.928688
 21
2644.673671
 31
0.0
  0
LINE
  5
444
330
43A
100
AcDbEntity
  8
LC-011-003-----0
 62
     7
370
    25
100
AcDbLine
 10
894.928688
 20
2644.673671
 30
0.0
 11
913.270418
 21
2642.258937
 31
0.0
  0
LINE
  5
445
330
43A
100
AcDbEntity
  8
LC-011-003-----0
 62
     7
370
    25
100
AcDbLine
 10
913.326027
 20
2646.239986
 30
0.0
 11
901.428688
 21
2644.673671
 31
0.0
  0
LINE
  5
446
330
43A
100
AcDbEntity
  8
LC-011-003-----0
 62
     7
370
    25
100
AcDbLine
 10
901.428688
 20
2644.673671
 30
0.0
 11
913.326027
 21
2643.107357
 31
0.0
  0
LINE
  5
447
330
43A
100
AcDbEntity
  8
LC-011-003-----0
 62
     7
370
    25
100
AcDbLine
 10
913.381635
 20
2645.391565
 30
0.0
 11
907.928688
 21
2644.673671
 31
0.0
  0
LINE
  5
448
330
43A
100
AcDbEntity
  8
LC-011-003-----0
 62
     7
370
    25
100
AcDbLine
 10
907.928688
 20
2644.673671
 30
0.0
 11
913.381635
 21
2643.955777
 31
0.0
  0
LINE
  5
449
330
43A
100
AcDbEntity
  8
LC-011-003-----0
 62
     7
370
    25
100
AcDbLine
 10
1233.443931
 20
2641.410517
 30
0.0
 11
1258.230053
 21
2644.673671
 31
0.0
  0
LINE
  5
44A
330
43A
100
AcDbEntity
  8
LC-011-003-----0
 62
     7
370
    25
100
AcDbLine
 10
1258.230053
 20
2644.673671
 30
0.0
 11
1233.443931
 21
2647.936826
 31
0.0
  0
LINE
  5
44B
330
43A
100
AcDbEntity
  8
LC-011-003-----0
 62
     7
370
    25
100
AcDbLine
 10
1233.443931
 20
2647.936826
 30
0.0
 11
1233.443931
 21
2641.410517
 31
0.0
  0
LINE
  5
44C
330
43A
100
AcDbEntity
  8
LC-011-003-----0
 62
     7
370
    25
100
AcDbLine
 10
1233.388322
 20
2642.258937
 30
0.0
 11
1251.730053
 21
2644.673671
 31
0.0
  0
LINE
  5
44D
330
43A
100
AcDbEntity
  8
LC-011-003-----0
 62
     7
370
    25
100
AcDbLine
 10
1251.730053
 20
2644.673671
 30
0.0
 11
1233.388322
 21
2647.088406
 31
0.0
  0
LINE
  5
44E
330
43A
100
AcDbEntity
  8
LC-011-003-----0
 62
     7
370
    25
100
AcDbLine
 10
1233.332714
 20
2643.107357
 30
0.0
 11
1245.230052
 21
2644.673671
 31
0.0
  0
LINE
  5
44F
330
43A
100
AcDbEntity
  8
LC-011-003-----0
 62
     7
370
    25
100
AcDbLine
 10
1245.230052
 20
2644.673671
 30
0.0
 11
1233.332714
 21
2646.239986
 31
0.0
  0
LINE
  5
450
330
43A
100
AcDbEntity
  8
LC-011-003-----0
 62
     7
370
    25
100
AcDbLine
 10
1233.277105
 20
2643.955777
 30
0.0
 11
1238.730052
 21
2644.673671
 31
0.0
  0
LINE
  5
451
330
43A
100
AcDbEntity
  8
LC-011-003-----0
 62
     7
370
    25
100
AcDbLine
 10
1238.730052
 20
2644.673671
 30
0.0
 11
1233.277105
 21
2645.391565
 31
0.0
  0
TEXT
  5
452
330
43A
100
AcDbEntity
  8
LC-011-003-----0
 62
     7
370
    25
100
AcDbText
 10
1018.57385
 20
2659.673672
 30
0.0
 40
25.0
  1
14.56
 41
0.7
  7
LCTX0-400-0-0pDIN-Schrift
 72
     1
 11
1057.32385
 21
2659.673672
 31
0.0
100
AcDbText
  0
ENDBLK
  5
43C
330
43A
100
AcDbEntity
  8
0
100
AcDbBlockEnd
  0
BLOCK
  5
455
330
454
100
AcDbEntity
  8
0
100
AcDbBlockBegin
  2
LCDIM3
 70
     0
 71
     0
 10
0.0
 20
0.0
 30
0.0
  3
LCDIM3
  1

  4
LCDIM3
  0
LINE
  5
457
330
454
100
AcDbEntity
  8
LC-009-003-MTH-0
 62
     7
370
    25
100
AcDbLine
 10
454.57898
 20
2402.335673
 30
0.0
 11
454.57898
 21
2128.825036
 31
0.0
  0
LINE
  5
458
330
454
100
AcDbEntity
  8
LC-009-003-MTH-0
 62
     7
370
    25
100
AcDbLine
 10
1292.77898
 20
2402.335673
 30
0.0
 11
1292.77898
 21
2128.825036
 31
0.0
  0
LINE
  5
459
330
454
100
AcDbEntity
  8
LC-010-003-MTG-0
 62
     7
370
    25
100
AcDbLine
 10
454.57898
 20
2143.825037
 30
0.0
 11
1292.77898
 21
2143.825037
 31
0.0
  0
LINE
  5
45A
330
454
100
AcDbEntity
  8
LC-011-003-----0
 62
     7
370
    25
100
AcDbLine
 10
479.365101
 20
2147.088191
 30
0.0
 11
454.57898
 21
2143.825037
 31
0.0
  0
LINE
  5
45B
330
454
100
AcDbEntity
  8
LC-011-003-----0
 62
     7
370
    25
100
AcDbLine
 10
454.57898
 20
2143.825037
 30
0.0
 11
479.365101
 21
2140.561882
 31
0.0
  0
LINE
  5
45C
330
454
100
AcDbEntity
  8
LC-011-003-----0
 62
     7
370
    25
100
AcDbLine
 10
479.365101
 20
2140.561882
 30
0.0
 11
479.365101
 21
2147.088191
 31
0.0
  0
LINE
  5
45D
330
454
100
AcDbEntity
  8
LC-011-003-----0
 62
     7
370
    25
100
AcDbLine
 10
479.42071
 20
2146.239771
 30
0.0
 11
461.07898
 21
2143.825037
 31
0.0
  0
LINE
  5
45E
330
454
100
AcDbEntity
  8
LC-011-003-----0
 62
     7
370
    25
100
AcDbLine
 10
461.07898
 20
2143.825037
 30
0.0
 11
479.42071
 21
2141.410302
 31
0.0
  0
LINE
  5
45F
330
454
100
AcDbEntity
  8
LC-011-003-----0
 62
     7
370
    25
100
AcDbLine
 10
479.476318
 20
2145.391351
 30
0.0
 11
467.57898
 21
2143.825037
 31
0.0
  0
LINE
  5
460
330
454
100
AcDbEntity
  8
LC-011-003-----0
 62
     7
370
    25
100
AcDbLine
 10
467.57898
 20
2143.825037
 30
0.0
 11
479.476318
 21
2142.258722
 31
0.0
  0
LINE
  5
461
330
454
100
AcDbEntity
  8
LC-011-003-----0
 62
     7
370
    25
100
AcDbLine
 10
479.531927
 20
2144.542931
 30
0.0
 11
474.07898
 21
2143.825037
 31
0.0
  0
LINE
  5
462
330
454
100
AcDbEntity
  8
LC-011-003-----0
 62
     7
370
    25
100
AcDbLine
 10
474.07898
 20
2143.825037
 30
0.0
 11
479.531927
 21
2143.107143
 31
0.0
  0
LINE
  5
463
330
454
100
AcDbEntity
  8
LC-011-003-----0
 62
     7
370
    25
100
AcDbLine
 10
1267.992858
 20
2140.561882
 30
0.0
 11
1292.77898
 21
2143.825037
 31
0.0
  0
LINE
  5
464
330
454
100
AcDbEntity
  8
LC-011-003-----0
 62
     7
370
    25
100
AcDbLine
 10
1292.77898
 20
2143.825037
 30
0.0
 11
1267.992858
 21
2147.088191
 31
0.0
  0
LINE
  5
465
330
454
100
AcDbEntity
  8
LC-011-003-----0
 62
     7
370
    25
100
AcDbLine
 10
1267.992858
 20
2147.088191
 30
0.0
 11
1267.992858
 21
2140.561882
 31
0.0
  0
LINE
  5
466
330
454
100
AcDbEntity
  8
LC-011-003-----0
 62
     7
370
    25
100
AcDbLine
 10
1267.937249
 20
2141.410302
 30
0.0
 11
1286.278979
 21
2143.825037
 31
0.0
  0
LINE
  5
467
330
454
100
AcDbEntity
  8
LC-011-003-----0
 62
     7
370
    25
100
AcDbLine
 10
1286.278979
 20
2143.825037
 30
0.0
 11
1267.937249
 21
2146.239771
 31
0.0
  0
LINE
  5
468
330
454
100
AcDbEntity
  8
LC-011-003-----0
 62
     7
370
    25
100
AcDbLine
 10
1267.881641
 20
2142.258722
 30
0.0
 11
1279.778979
 21
2143.825037
 31
0.0
  0
LINE
  5
469
330
454
100
AcDbEntity
  8
LC-011-003-----0
 62
     7
370
    25
100
AcDbLine
 10
1279.778979
 20
2143.825037
 30
0.0
 11
1267.881641
 21
2145.391351
 31
0.0
  0
LINE
  5
46A
330
454
100
AcDbEntity
  8
LC-011-003-----0
 62
     7
370
    25
100
AcDbLine
 10
1267.826032
 20
2143.107143
 30
0.0
 11
1273.278979
 21
2143.825037
 31
0.0
  0
LINE
  5
46B
330
454
100
AcDbEntity
  8
LC-011-003-----0
 62
     7
370
    25
100
AcDbLine
 10
1273.278979
 20
2143.825037
 30
0.0
 11
1267.826032
 21
2144.542931
 31
0.0
  0
TEXT
  5
46C
330
454
100
AcDbEntity
  8
LC-011-003-----0
 62
     7
370
    25
100
AcDbText
 10
884.416689
 20
2158.825037
 30
0.0
 40
25.0
  1
33
 41
0.7
  7
LCTX0-400-0-0pDIN-Schrift
 72
     1
 11
901.083356
 21
2158.825037
 31
0.0
100
AcDbText
  0
ENDBLK
  5
456
330
454
100
AcDbEntity
  8
0
100
AcDbBlockEnd
  0
BLOCK
  5
46F
330
46E
100
AcDbEntity
  8
0
100
AcDbBlockBegin
  2
LCDIM4
 70
     0
 71
     0
 10
0.0
 20
0.0
 30
0.0
  3
LCDIM4
  1

  4
LCDIM4
  0
LINE
  5
471
330
46E
100
AcDbEntity
  8
LC-009-003-MTH-0
 62
     7
370
    25
100
AcDbLine
 10
1072.52937
 20
2336.96
 30
0.0
 11
1116.161111
 21
2336.96
 31
0.0
  0
LINE
  5
472
330
46E
100
AcDbEntity
  8
LC-009-003-MTH-0
 62
     7
370
    25
100
AcDbLine
 10
1072.52937
 20
2577.96
 30
0.0
 11
1116.161111
 21
2577.96
 31
0.0
  0
LINE
  5
473
330
46E
100
AcDbEntity
  8
LC-010-003-MTG-0
 62
     7
370
    25
100
AcDbLine
 10
1101.161111
 20
2336.96
 30
0.0
 11
1101.161111
 21
2577.96
 31
0.0
  0
LINE
  5
474
330
46E
100
AcDbEntity
  8
LC-011-003-----0
 62
     7
370
    25
100
AcDbLine
 10
1097.897956
 20
2361.746122
 30
0.0
 11
1101.161111
 21
2336.96
 31
0.0
  0
LINE
  5
475
330
46E
100
AcDbEntity
  8
LC-011-003-----0
 62
     7
370
    25
100
AcDbLine
 10
1101.161111
 20
2336.96
 30
0.0
 11
1104.424266
 21
2361.746122
 31
0.0
  0
LINE
  5
476
330
46E
100
AcDbEntity
  8
LC-011-003-----0
 62
     7
370
    25
100
AcDbLine
 10
1104.424266
 20
2361.746122
 30
0.0
 11
1097.897956
 21
2361.746122
 31
0.0
  0
LINE
  5
477
330
46E
100
AcDbEntity
  8
LC-011-003-----0
 62
     7
370
    25
100
AcDbLine
 10
1098.746376
 20
2361.80173
 30
0.0
 11
1101.161111
 21
2343.46
 31
0.0
  0
LINE
  5
478
330
46E
100
AcDbEntity
  8
LC-011-003-----0
 62
     7
370
    25
100
AcDbLine
 10
1101.161111
 20
2343.46
 30
0.0
 11
1103.575845
 21
2361.80173
 31
0.0
  0
LINE
  5
479
330
46E
100
AcDbEntity
  8
LC-011-003-----0
 62
     7
370
    25
100
AcDbLine
 10
1099.594797
 20
2361.857339
 30
0.0
 11
1101.161111
 21
2349.96
 31
0.0
  0
LINE
  5
47A
330
46E
100
AcDbEntity
  8
LC-011-003-----0
 62
     7
370
    25
100
AcDbLine
 10
1101.161111
 20
2349.96
 30
0.0
 11
1102.727425
 21
2361.857339
 31
0.0
  0
LINE
  5
47B
330
46E
100
AcDbEntity
  8
LC-011-003-----0
 62
     7
370
    25
100
AcDbLine
 10
1100.443217
 20
2361.912947
 30
0.0
 11
1101.161111
 21
2356.46
 31
0.0
  0
LINE
  5
47C
330
46E
100
AcDbEntity
  8
LC-011-003-----0
 62
     7
370
    25
100
AcDbLine
 10
1101.161111
 20
2356.46
 30
0.0
 11
1101.879005
 21
2361.912947
 31
0.0
  0
LINE
  5
47D
330
46E
100
AcDbEntity
  8
LC-011-003-----0
 62
     7
370
    25
100
AcDbLine
 10
1104.424266
 20
2553.173878
 30
0.0
 11
1101.161111
 21
2577.96
 31
0.0
  0
LINE
  5
47E
330
46E
100
AcDbEntity
  8
LC-011-003-----0
 62
     7
370
    25
100
AcDbLine
 10
1101.161111
 20
2577.96
 30
0.0
 11
1097.897956
 21
2553.173878
 31
0.0
  0
LINE
  5
47F
330
46E
100
AcDbEntity
  8
LC-011-003-----0
 62
     7
370
    25
100
AcDbLine
 10
1097.897956
 20
2553.173878
 30
0.0
 11
1104.424266
 21
2553.173878
 31
0.0
  0
LINE
  5
480
330
46E
100
AcDbEntity
  8
LC-011-003-----0
 62
     7
370
    25
100
AcDbLine
 10
1103.575845
 20
2553.11827
 30
0.0
 11
1101.161111
 21
2571.46
 31
0.0
  0
LINE
  5
481
330
46E
100
AcDbEntity
  8
LC-011-003-----0
 62
     7
370
    25
100
AcDbLine
 10
1101.161111
 20
2571.46
 30
0.0
 11
1098.746376
 21
2553.11827
 31
0.0
  0
LINE
  5
482
330
46E
100
AcDbEntity
  8
LC-011-003-----0
 62
     7
370
    25
100
AcDbLine
 10
1102.727425
 20
2553.062661
 30
0.0
 11
1101.161111
 21
2564.96
 31
0.0
  0
LINE
  5
483
330
46E
100
AcDbEntity
  8
LC-011-003-----0
 62
     7
370
    25
100
AcDbLine
 10
1101.161111
 20
2564.96
 30
0.0
 11
1099.594797
 21
2553.062661
 31
0.0
  0
LINE
  5
484
330
46E
100
AcDbEntity
  8
LC-011-003-----0
 62
     7
370
    25
100
AcDbLine
 10
1101.879005
 20
2553.007053
 30
0.0
 11
1101.161111
 21
2558.46
 31
0.0
  0
LINE
  5
485
330
46E
100
AcDbEntity
  8
LC-011-003-----0
 62
     7
370
    25
100
AcDbLine
 10
1101.161111
 20
2558.46
 30
0.0
 11
1100.443217
 21
2553.007053
 31
0.0
  0
TEXT
  5
486
330
46E
100
AcDbEntity
  8
LC-011-003-----0
 62
     7
370
    25
100
AcDbText
 10
1086.161111
 20
2428.312054
 30
0.0
 40
25.0
  1
9.49
 50
90.0
 41
0.7
  7
LCTX0-400-0-0pDIN-Schrift
 72
     1
 11
1086.161111
 21
2457.062054
 31
0.0
100
AcDbText
  0
ENDBLK
  5
470
330
46E
100
AcDbEntity
  8
0
100
AcDbBlockEnd
  0
BLOCK
  5
489
330
488
100
AcDbEntity
  8
0
100
AcDbBlockBegin
  2
LCDIM5
 70
     0
 71
     0
 10
0.0
 20
0.0
 30
0.0
  3
LCDIM5
  1

  4
LCDIM5
  0
LINE
  5
48B
330
488
100
AcDbEntity
  8
LC-009-003-MTH-0
 62
     7
370
    25
100
AcDbLine
 10
1267.22937
 20
1366.2
 30
0.0
 11
1388.214149
 21
1366.2
 31
0.0
  0
LINE
  5
48C
330
488
100
AcDbEntity
  8
LC-009-003-MTH-0
 62
     7
370
    25
100
AcDbLine
 10
1267.22937
 20
1925.0
 30
0.0
 11
1388.214149
 21
1925.0
 31
0.0
  0
LINE
  5
48D
330
488
100
AcDbEntity
  8
LC-010-003-MTG-0
 62
     7
370
    25
100
AcDbLine
 10
1373.214148
 20
1366.2
 30
0.0
 11
1373.214148
 21
1925.0
 31
0.0
  0
LINE
  5
48E
330
488
100
AcDbEntity
  8
LC-011-003-----0
 62
     7
370
    25
100
AcDbLine
 10
1369.950994
 20
1390.986122
 30
0.0
 11
1373.214148
 21
1366.2
 31
0.0
  0
LINE
  5
48F
330
488
100
AcDbEntity
  8
LC-011-003-----0
 62
     7
370
    25
100
AcDbLine
 10
1373.214148
 20
1366.2
 30
0.0
 11
1376.477303
 21
1390.986122
 31
0.0
  0
LINE
  5
490
330
488
100
AcDbEntity
  8
LC-011-003-----0
 62
     7
370
    25
100
AcDbLine
 10
1376.477303
 20
1390.986122
 30
0.0
 11
1369.950994
 21
1390.986122
 31
0.0
  0
LINE
  5
491
330
488
100
AcDbEntity
  8
LC-011-003-----0
 62
     7
370
    25
100
AcDbLine
 10
1370.799414
 20
1391.04173
 30
0.0
 11
1373.214148
 21
1372.7
 31
0.0
  0
LINE
  5
492
330
488
100
AcDbEntity
  8
LC-011-003-----0
 62
     7
370
    25
100
AcDbLine
 10
1373.214148
 20
1372.7
 30
0.0
 11
1375.628883
 21
1391.04173
 31
0.0
  0
LINE
  5
493
330
488
100
AcDbEntity
  8
LC-011-003-----0
 62
     7
370
    25
100
AcDbLine
 10
1371.647834
 20
1391.097339
 30
0.0
 11
1373.214148
 21
1379.2
 31
0.0
  0
LINE
  5
494
330
488
100
AcDbEntity
  8
LC-011-003-----0
 62
     7
370
    25
100
AcDbLine
 10
1373.214148
 20
1379.2
 30
0.0
 11
1374.780463
 21
1391.097339
 31
0.0
  0
LINE
  5
495
330
488
100
AcDbEntity
  8
LC-011-003-----0
 62
     7
370
    25
100
AcDbLine
 10
1372.496254
 20
1391.152947
 30
0.0
 11
1373.214148
 21
1385.7
 31
0.0
  0
LINE
  5
496
330
488
100
AcDbEntity
  8
LC-011-003-----0
 62
     7
370
    25
100
AcDbLine
 10
1373.214148
 20
1385.7
 30
0.0
 11
1373.932043
 21
1391.152947
 31
0.0
  0
LINE
  5
497
330
488
100
AcDbEntity
  8
LC-011-003-----0
 62
     7
370
    25
100
AcDbLine
 10
1376.477303
 20
1900.213878
 30
0.0
 11
1373.214148
 21
1925.0
 31
0.0
  0
LINE
  5
498
330
488
100
AcDbEntity
  8
LC-011-003-----0
 62
     7
370
    25
100
AcDbLine
 10
1373.214148
 20
1925.0
 30
0.0
 11
1369.950994
 21
1900.213878
 31
0.0
  0
LINE
  5
499
330
488
100
AcDbEntity
  8
LC-011-003-----0
 62
     7
370
    25
100
AcDbLine
 10
1369.950994
 20
1900.213878
 30
0.0
 11
1376.477303
 21
1900.213878
 31
0.0
  0
LINE
  5
49A
330
488
100
AcDbEntity
  8
LC-011-003-----0
 62
     7
370
    25
100
AcDbLine
 10
1375.628883
 20
1900.15827
 30
0.0
 11
1373.214148
 21
1918.5
 31
0.0
  0
LINE
  5
49B
330
488
100
AcDbEntity
  8
LC-011-003-----0
 62
     7
370
    25
100
AcDbLine
 10
1373.214148
 20
1918.5
 30
0.0
 11
1370.799414
 21
1900.15827
 31
0.0
  0
LINE
  5
49C
330
488
100
AcDbEntity
  8
LC-011-003-----0
 62
     7
370
    25
100
AcDbLine
 10
1374.780463
 20
1900.102661
 30
0.0
 11
1373.214148
 21
1912.0
 31
0.0
  0
LINE
  5
49D
330
488
100
AcDbEntity
  8
LC-011-003-----0
 62
     7
370
    25
100
AcDbLine
 10
1373.214148
 20
1912.0
 30
0.0
 11
1371.647834
 21
1900.102661
 31
0.0
  0
LINE
  5
49E
330
488
100
AcDbEntity
  8
LC-011-003-----0
 62
     7
370
    25
100
AcDbLine
 10
1373.932043
 20
1900.047053
 30
0.0
 11
1373.214148
 21
1905.5
 31
0.0
  0
LINE
  5
49F
330
488
100
AcDbEntity
  8
LC-011-003-----0
 62
     7
370
    25
100
AcDbLine
 10
1373.214148
 20
1905.5
 30
0.0
 11
1372.496254
 21
1900.047053
 31
0.0
  0
TEXT
  5
4A0
330
488
100
AcDbEntity
  8
LC-011-003-----0
 62
     7
370
    25
100
AcDbText
 10
1358.214148
 20
1623.81792
 30
0.0
 40
25.0
  1
22
 50
90.0
 41
0.7
  7
LCTX0-400-0-0pDIN-Schrift
 72
     1
 11
1358.214148
 21
1640.484587
 31
0.0
100
AcDbText
  0
ENDBLK
  5
48A
330
488
100
AcDbEntity
  8
0
100
AcDbBlockEnd
  0
BLOCK
  5
4A3
330
4A2
100
AcDbEntity
  8
0
100
AcDbBlockBegin
  2
LCDIM6
 70
     0
 71
     0
 10
0.0
 20
0.0
 30
0.0
  3
LCDIM6
  1

  4
LCDIM6
  0
LINE
  5
4A5
330
4A2
100
AcDbEntity
  8
LC-009-003-MTH-0
 62
     7
370
    25
100
AcDbLine
 10
754.42937
 20
1870.0
 30
0.0
 11
694.993287
 21
1870.0
 31
0.0
  0
LINE
  5
4A6
330
4A2
100
AcDbEntity
  8
LC-009-003-MTH-0
 62
     7
370
    25
100
AcDbLine
 10
873.52937
 20
1925.0
 30
0.0
 11
694.993287
 21
1925.0
 31
0.0
  0
LINE
  5
4A7
330
4A2
100
AcDbEntity
  8
LC-011-003-----0
 62
     7
370
    25
100
AcDbLine
 10
713.256442
 20
1845.213878
 30
0.0
 11
709.993287
 21
1870.0
 31
0.0
  0
LINE
  5
4A8
330
4A2
100
AcDbEntity
  8
LC-011-003-----0
 62
     7
370
    25
100
AcDbLine
 10
709.993287
 20
1870.0
 30
0.0
 11
706.730132
 21
1845.213878
 31
0.0
  0
LINE
  5
4A9
330
4A2
100
AcDbEntity
  8
LC-011-003-----0
 62
     7
370
    25
100
AcDbLine
 10
706.730132
 20
1845.213878
 30
0.0
 11
713.256442
 21
1845.213878
 31
0.0
  0
LINE
  5
4AA
330
4A2
100
AcDbEntity
  8
LC-011-003-----0
 62
     7
370
    25
100
AcDbLine
 10
712.408022
 20
1845.15827
 30
0.0
 11
709.993287
 21
1863.5
 31
0.0
  0
LINE
  5
4AB
330
4A2
100
AcDbEntity
  8
LC-011-003-----0
 62
     7
370
    25
100
AcDbLine
 10
709.993287
 20
1863.5
 30
0.0
 11
707.578553
 21
1845.15827
 31
0.0
  0
LINE
  5
4AC
330
4A2
100
AcDbEntity
  8
LC-011-003-----0
 62
     7
370
    25
100
AcDbLine
 10
711.559602
 20
1845.102661
 30
0.0
 11
709.993287
 21
1857.0
 31
0.0
  0
LINE
  5
4AD
330
4A2
100
AcDbEntity
  8
LC-011-003-----0
 62
     7
370
    25
100
AcDbLine
 10
709.993287
 20
1857.0
 30
0.0
 11
708.426973
 21
1845.102661
 31
0.0
  0
LINE
  5
4AE
330
4A2
100
AcDbEntity
  8
LC-011-003-----0
 62
     7
370
    25
100
AcDbLine
 10
710.711181
 20
1845.047053
 30
0.0
 11
709.993287
 21
1850.5
 31
0.0
  0
LINE
  5
4AF
330
4A2
100
AcDbEntity
  8
LC-011-003-----0
 62
     7
370
    25
100
AcDbLine
 10
709.993287
 20
1850.5
 30
0.0
 11
709.275393
 21
1845.047053
 31
0.0
  0
LINE
  5
4B0
330
4A2
100
AcDbEntity
  8
LC-011-003-----0
 62
     7
370
    25
100
AcDbLine
 10
706.730132
 20
1949.786122
 30
0.0
 11
709.993287
 21
1925.0
 31
0.0
  0
LINE
  5
4B1
330
4A2
100
AcDbEntity
  8
LC-011-003-----0
 62
     7
370
    25
100
AcDbLine
 10
709.993287
 20
1925.0
 30
0.0
 11
713.256442
 21
1949.786122
 31
0.0
  0
LINE
  5
4B2
330
4A2
100
AcDbEntity
  8
LC-011-003-----0
 62
     7
370
    25
100
AcDbLine
 10
713.256442
 20
1949.786122
 30
0.0
 11
706.730132
 21
1949.786122
 31
0.0
  0
LINE
  5
4B3
330
4A2
100
AcDbEntity
  8
LC-011-003-----0
 62
     7
370
    25
100
AcDbLine
 10
707.578553
 20
1949.84173
 30
0.0
 11
709.993287
 21
1931.5
 31
0.0
  0
LINE
  5
4B4
330
4A2
100
AcDbEntity
  8
LC-011-003-----0
 62
     7
370
    25
100
AcDbLine
 10
709.993287
 20
1931.5
 30
0.0
 11
712.408022
 21
1949.84173
 31
0.0
  0
LINE
  5
4B5
330
4A2
100
AcDbEntity
  8
LC-011-003-----0
 62
     7
370
    25
100
AcDbLine
 10
708.426973
 20
1949.897339
 30
0.0
 11
709.993287
 21
1938.0
 31
0.0
  0
LINE
  5
4B6
330
4A2
100
AcDbEntity
  8
LC-011-003-----0
 62
     7
370
    25
100
AcDbLine
 10
709.993287
 20
1938.0
 30
0.0
 11
711.559602
 21
1949.897339
 31
0.0
  0
LINE
  5
4B7
330
4A2
100
AcDbEntity
  8
LC-011-003-----0
 62
     7
370
    25
100
AcDbLine
 10
709.275393
 20
1949.952947
 30
0.0
 11
709.993287
 21
1944.5
 31
0.0
  0
LINE
  5
4B8
330
4A2
100
AcDbEntity
  8
LC-011-003-----0
 62
     7
370
    25
100
AcDbLine
 10
709.993287
 20
1944.5
 30
0.0
 11
710.711181
 21
1949.952947
 31
0.0
  0
LINE
  5
4B9
330
4A2
100
AcDbEntity
  8
LC-010-003-MTG-0
 62
     7
370
    25
100
AcDbLine
 10
709.993287
 20
1834.999999
 30
0.0
 11
709.993287
 21
2010.301739
 31
0.0
  0
TEXT
  5
4BA
330
4A2
100
AcDbEntity
  8
LC-011-003-----0
 62
     7
370
    25
100
AcDbText
 10
694.993287
 20
1977.011309
 30
0.0
 40
25.0
  1
2.17
 50
90.0
 41
0.7
  7
LCTX0-400-0-0pDIN-Schrift
100
AcDbText
  0
ENDBLK
  5
4A4
330
4A2
100
AcDbEntity
  8
0
100
AcDbBlockEnd
  0
BLOCK
  5
4BD
330
4BC
100
AcDbEntity
  8
0
100
AcDbBlockBegin
  2
LCDIM7
 70
     0
 71
     0
 10
0.0
 20
0.0
 30
0.0
  3
LCDIM7
  1

  4
LCDIM7
  0
LINE
  5
4BF
330
4BC
100
AcDbEntity
  8
LC-009-003-MTH-0
 62
     7
370
    25
100
AcDbLine
 10
454.42937
 20
1391.6
 30
0.0
 11
454.42937
 21
1270.557805
 31
0.0
  0
LINE
  5
4C0
330
4BC
100
AcDbEntity
  8
LC-009-003-MTH-0
 62
     7
370
    25
100
AcDbLine
 10
1292.62937
 20
1391.6
 30
0.0
 11
1292.62937
 21
1270.557805
 31
0.0
  0
LINE
  5
4C1
330
4BC
100
AcDbEntity
  8
LC-010-003-MTG-0
 62
     7
370
    25
100
AcDbLine
 10
454.42937
 20
1285.557805
 30
0.0
 11
1292.62937
 21
1285.557805
 31
0.0
  0
LINE
  5
4C2
330
4BC
100
AcDbEntity
  8
LC-011-003-----0
 62
     7
370
    25
100
AcDbLine
 10
479.215492
 20
1288.82096
 30
0.0
 11
454.42937
 21
1285.557805
 31
0.0
  0
LINE
  5
4C3
330
4BC
100
AcDbEntity
  8
LC-011-003-----0
 62
     7
370
    25
100
AcDbLine
 10
454.42937
 20
1285.557805
 30
0.0
 11
479.215492
 21
1282.294651
 31
0.0
  0
LINE
  5
4C4
330
4BC
100
AcDbEntity
  8
LC-011-003-----0
 62
     7
370
    25
100
AcDbLine
 10
479.215492
 20
1282.294651
 30
0.0
 11
479.215492
 21
1288.82096
 31
0.0
  0
LINE
  5
4C5
330
4BC
100
AcDbEntity
  8
LC-011-003-----0
 62
     7
370
    25
100
AcDbLine
 10
479.271101
 20
1287.97254
 30
0.0
 11
460.92937
 21
1285.557805
 31
0.0
  0
LINE
  5
4C6
330
4BC
100
AcDbEntity
  8
LC-011-003-----0
 62
     7
370
    25
100
AcDbLine
 10
460.92937
 20
1285.557805
 30
0.0
 11
479.271101
 21
1283.143071
 31
0.0
  0
LINE
  5
4C7
330
4BC
100
AcDbEntity
  8
LC-011-003-----0
 62
     7
370
    25
100
AcDbLine
 10
479.326709
 20
1287.12412
 30
0.0
 11
467.42937
 21
1285.557805
 31
0.0
  0
LINE
  5
4C8
330
4BC
100
AcDbEntity
  8
LC-011-003-----0
 62
     7
370
    25
100
AcDbLine
 10
467.42937
 20
1285.557805
 30
0.0
 11
479.326709
 21
1283.991491
 31
0.0
  0
LINE
  5
4C9
330
4BC
100
AcDbEntity
  8
LC-011-003-----0
 62
     7
370
    25
100
AcDbLine
 10
479.382317
 20
1286.2757
 30
0.0
 11
473.929371
 21
1285.557805
 31
0.0
  0
LINE
  5
4CA
330
4BC
100
AcDbEntity
  8
LC-011-003-----0
 62
     7
370
    25
100
AcDbLine
 10
473.929371
 20
1285.557805
 30
0.0
 11
479.382317
 21
1284.839911
 31
0.0
  0
LINE
  5
4CB
330
4BC
100
AcDbEntity
  8
LC-011-003-----0
 62
     7
370
    25
100
AcDbLine
 10
1267.843248
 20
1282.294651
 30
0.0
 11
1292.62937
 21
1285.557805
 31
0.0
  0
LINE
  5
4CC
330
4BC
100
AcDbEntity
  8
LC-011-003-----0
 62
     7
370
    25
100
AcDbLine
 10
1292.62937
 20
1285.557805
 30
0.0
 11
1267.843248
 21
1288.82096
 31
0.0
  0
LINE
  5
4CD
330
4BC
100
AcDbEntity
  8
LC-011-003-----0
 62
     7
370
    25
100
AcDbLine
 10
1267.843248
 20
1288.82096
 30
0.0
 11
1267.843248
 21
1282.294651
 31
0.0
  0
LINE
  5
4CE
330
4BC
100
AcDbEntity
  8
LC-011-003-----0
 62
     7
370
    25
100
AcDbLine
 10
1267.78764
 20
1283.143071
 30
0.0
 11
1286.12937
 21
1285.557805
 31
0.0
  0
LINE
  5
4CF
330
4BC
100
AcDbEntity
  8
LC-011-003-----0
 62
     7
370
    25
100
AcDbLine
 10
1286.12937
 20
1285.557805
 30
0.0
 11
1267.78764
 21
1287.97254
 31
0.0
  0
LINE
  5
4D0
330
4BC
100
AcDbEntity
  8
LC-011-003-----0
 62
     7
370
    25
100
AcDbLine
 10
1267.732032
 20
1283.991491
 30
0.0
 11
1279.62937
 21
1285.557805
 31
0.0
  0
LINE
  5
4D1
330
4BC
100
AcDbEntity
  8
LC-011-003-----0
 62
     7
370
    25
100
AcDbLine
 10
1279.62937
 20
1285.557805
 30
0.0
 11
1267.732032
 21
1287.12412
 31
0.0
  0
LINE
  5
4D2
330
4BC
100
AcDbEntity
  8
LC-011-003-----0
 62
     7
370
    25
100
AcDbLine
 10
1267.676423
 20
1284.839911
 30
0.0
 11
1273.12937
 21
1285.557805
 31
0.0
  0
LINE
  5
4D3
330
4BC
100
AcDbEntity
  8
LC-011-003-----0
 62
     7
370
    25
100
AcDbLine
 10
1273.12937
 20
1285.557805
 30
0.0
 11
1267.676423
 21
1286.2757
 31
0.0
  0
TEXT
  5
4D4
330
4BC
100
AcDbEntity
  8
LC-011-003-----0
 62
     7
370
    25
100
AcDbText
 10
864.480391
 20
1300.557806
 30
0.0
 40
25.0
  1
33
 41
0.7
  7
LCTX0-400-0-0pDIN-Schrift
 72
     1
 11
881.147058
 21
1300.557806
 31
0.0
100
AcDbText
  0
ENDBLK
  5
4BE
330
4BC
100
AcDbEntity
  8
0
100
AcDbBlockEnd
  0
BLOCK
  5
4D7
330
4D6
100
AcDbEntity
  8
0
100
AcDbBlockBegin
  2
LCDIM8
 70
     0
 71
     0
 10
0.0
 20
0.0
 30
0.0
  3
LCDIM8
  1

  4
LCDIM8
  0
LINE
  5
4D9
330
4D6
100
AcDbEntity
  8
LC-009-003-MTH-0
 62
     7
370
    25
100
AcDbLine
 10
771.92937
 20
1887.5
 30
0.0
 11
771.92937
 21
1984.848774
 31
0.0
  0
LINE
  5
4DA
330
4D6
100
AcDbEntity
  8
LC-009-003-MTH-0
 62
     7
370
    25
100
AcDbLine
 10
873.52937
 20
1887.5
 30
0.0
 11
873.52937
 21
1984.848774
 31
0.0
  0
LINE
  5
4DB
330
4D6
100
AcDbEntity
  8
LC-010-003-MTG-0
 62
     7
370
    25
100
AcDbLine
 10
771.92937
 20
1969.848774
 30
0.0
 11
873.52937
 21
1969.848774
 31
0.0
  0
LINE
  5
4DC
330
4D6
100
AcDbEntity
  8
LC-011-003-----0
 62
     7
370
    25
100
AcDbLine
 10
796.715492
 20
1973.111929
 30
0.0
 11
771.92937
 21
1969.848774
 31
0.0
  0
LINE
  5
4DD
330
4D6
100
AcDbEntity
  8
LC-011-003-----0
 62
     7
370
    25
100
AcDbLine
 10
771.92937
 20
1969.848774
 30
0.0
 11
796.715492
 21
1966.585619
 31
0.0
  0
LINE
  5
4DE
330
4D6
100
AcDbEntity
  8
LC-011-003-----0
 62
     7
370
    25
100
AcDbLine
 10
796.715492
 20
1966.585619
 30
0.0
 11
796.715492
 21
1973.111929
 31
0.0
  0
LINE
  5
4DF
330
4D6
100
AcDbEntity
  8
LC-011-003-----0
 62
     7
370
    25
100
AcDbLine
 10
796.771101
 20
1972.263509
 30
0.0
 11
778.42937
 21
1969.848774
 31
0.0
  0
LINE
  5
4E0
330
4D6
100
AcDbEntity
  8
LC-011-003-----0
 62
     7
370
    25
100
AcDbLine
 10
778.42937
 20
1969.848774
 30
0.0
 11
796.771101
 21
1967.434039
 31
0.0
  0
LINE
  5
4E1
330
4D6
100
AcDbEntity
  8
LC-011-003-----0
 62
     7
370
    25
100
AcDbLine
 10
796.826709
 20
1971.415088
 30
0.0
 11
784.92937
 21
1969.848774
 31
0.0
  0
LINE
  5
4E2
330
4D6
100
AcDbEntity
  8
LC-011-003-----0
 62
     7
370
    25
100
AcDbLine
 10
784.92937
 20
1969.848774
 30
0.0
 11
796.826709
 21
1968.28246
 31
0.0
  0
LINE
  5
4E3
330
4D6
100
AcDbEntity
  8
LC-011-003-----0
 62
     7
370
    25
100
AcDbLine
 10
796.882317
 20
1970.566668
 30
0.0
 11
791.429371
 21
1969.848774
 31
0.0
  0
LINE
  5
4E4
330
4D6
100
AcDbEntity
  8
LC-011-003-----0
 62
     7
370
    25
100
AcDbLine
 10
791.429371
 20
1969.848774
 30
0.0
 11
796.882317
 21
1969.13088
 31
0.0
  0
LINE
  5
4E5
330
4D6
100
AcDbEntity
  8
LC-011-003-----0
 62
     7
370
    25
100
AcDbLine
 10
848.743248
 20
1966.585619
 30
0.0
 11
873.52937
 21
1969.848774
 31
0.0
  0
LINE
  5
4E6
330
4D6
100
AcDbEntity
  8
LC-011-003-----0
 62
     7
370
    25
100
AcDbLine
 10
873.52937
 20
1969.848774
 30
0.0
 11
848.743248
 21
1973.111929
 31
0.0
  0
LINE
  5
4E7
330
4D6
100
AcDbEntity
  8
LC-011-003-----0
 62
     7
370
    25
100
AcDbLine
 10
848.743248
 20
1973.111929
 30
0.0
 11
848.743248
 21
1966.585619
 31
0.0
  0
LINE
  5
4E8
330
4D6
100
AcDbEntity
  8
LC-011-003-----0
 62
     7
370
    25
100
AcDbLine
 10
848.68764
 20
1967.434039
 30
0.0
 11
867.02937
 21
1969.848774
 31
0.0
  0
LINE
  5
4E9
330
4D6
100
AcDbEntity
  8
LC-011-003-----0
 62
     7
370
    25
100
AcDbLine
 10
867.02937
 20
1969.848774
 30
0.0
 11
848.68764
 21
1972.263509
 31
0.0
  0
LINE
  5
4EA
330
4D6
100
AcDbEntity
  8
LC-011-003-----0
 62
     7
370
    25
100
AcDbLine
 10
848.632032
 20
1968.28246
 30
0.0
 11
860.52937
 21
1969.848774
 31
0.0
  0
LINE
  5
4EB
330
4D6
100
AcDbEntity
  8
LC-011-003-----0
 62
     7
370
    25
100
AcDbLine
 10
860.52937
 20
1969.848774
 30
0.0
 11
848.632032
 21
1971.415088
 31
0.0
  0
LINE
  5
4EC
330
4D6
100
AcDbEntity
  8
LC-011-003-----0
 62
     7
370
    25
100
AcDbLine
 10
848.576423
 20
1969.13088
 30
0.0
 11
854.02937
 21
1969.848774
 31
0.0
  0
LINE
  5
4ED
330
4D6
100
AcDbEntity
  8
LC-011-003-----0
 62
     7
370
    25
100
AcDbLine
 10
854.02937
 20
1969.848774
 30
0.0
 11
848.576423
 21
1970.566668
 31
0.0
  0
TEXT
  5
4EE
330
4D6
100
AcDbEntity
  8
LC-011-003-----0
 62
     7
370
    25
100
AcDbText
 10
812.22581
 20
1984.848774
 30
0.0
 40
25.0
  1
4
 41
0.7
  7
LCTX0-400-0-0pDIN-Schrift
 72
     1
 11
820.97581
 21
1984.848774
 31
0.0
100
AcDbText
  0
ENDBLK
  5
4D8
330
4D6
100
AcDbEntity
  8
0
100
AcDbBlockEnd
  0
BLOCK
  5
4F1
330
4F0
100
AcDbEntity
  8
0
100
AcDbBlockBegin
  2
LCDIM9
 70
     0
 71
     0
 10
0.0
 20
0.0
 30
0.0
  3
LCDIM9
  1

  4
LCDIM9
  0
LINE
  5
4F3
330
4F0
100
AcDbEntity
  8
LC-009-003-MTH-0
 62
     7
370
    25
100
AcDbLine
 10
873.52937
 20
1888.75
 30
0.0
 11
873.52937
 21
1985.114357
 31
0.0
  0
LINE
  5
4F4
330
4F0
100
AcDbEntity
  8
LC-009-003-MTH-0
 62
     7
370
    25
100
AcDbLine
 10
975.12937
 20
1887.5
 30
0.0
 11
975.12937
 21
1985.114357
 31
0.0
  0
LINE
  5
4F5
330
4F0
100
AcDbEntity
  8
LC-010-003-MTG-0
 62
     7
370
    25
100
AcDbLine
 10
873.52937
 20
1970.114357
 30
0.0
 11
975.12937
 21
1970.114357
 31
0.0
  0
LINE
  5
4F6
330
4F0
100
AcDbEntity
  8
LC-011-003-----0
 62
     7
370
    25
100
AcDbLine
 10
898.315492
 20
1973.377512
 30
0.0
 11
873.52937
 21
1970.114357
 31
0.0
  0
LINE
  5
4F7
330
4F0
100
AcDbEntity
  8
LC-011-003-----0
 62
     7
370
    25
100
AcDbLine
 10
873.52937
 20
1970.114357
 30
0.0
 11
898.315492
 21
1966.851202
 31
0.0
  0
LINE
  5
4F8
330
4F0
100
AcDbEntity
  8
LC-011-003-----0
 62
     7
370
    25
100
AcDbLine
 10
898.315492
 20
1966.851202
 30
0.0
 11
898.315492
 21
1973.377512
 31
0.0
  0
LINE
  5
4F9
330
4F0
100
AcDbEntity
  8
LC-011-003-----0
 62
     7
370
    25
100
AcDbLine
 10
898.371101
 20
1972.529092
 30
0.0
 11
880.02937
 21
1970.114357
 31
0.0
  0
LINE
  5
4FA
330
4F0
100
AcDbEntity
  8
LC-011-003-----0
 62
     7
370
    25
100
AcDbLine
 10
880.02937
 20
1970.114357
 30
0.0
 11
898.371101
 21
1967.699622
 31
0.0
  0
LINE
  5
4FB
330
4F0
100
AcDbEntity
  8
LC-011-003-----0
 62
     7
370
    25
100
AcDbLine
 10
898.426709
 20
1971.680671
 30
0.0
 11
886.52937
 21
1970.114357
 31
0.0
  0
LINE
  5
4FC
330
4F0
100
AcDbEntity
  8
LC-011-003-----0
 62
     7
370
    25
100
AcDbLine
 10
886.52937
 20
1970.114357
 30
0.0
 11
898.426709
 21
1968.548043
 31
0.0
  0
LINE
  5
4FD
330
4F0
100
AcDbEntity
  8
LC-011-003-----0
 62
     7
370
    25
100
AcDbLine
 10
898.482317
 20
1970.832251
 30
0.0
 11
893.029371
 21
1970.114357
 31
0.0
  0
LINE
  5
4FE
330
4F0
100
AcDbEntity
  8
LC-011-003-----0
 62
     7
370
    25
100
AcDbLine
 10
893.029371
 20
1970.114357
 30
0.0
 11
898.482317
 21
1969.396463
 31
0.0
  0
LINE
  5
4FF
330
4F0
100
AcDbEntity
  8
LC-011-003-----0
 62
     7
370
    25
100
AcDbLine
 10
950.343248
 20
1966.851202
 30
0.0
 11
975.12937
 21
1970.114357
 31
0.0
  0
LINE
  5
500
330
4F0
100
AcDbEntity
  8
LC-011-003-----0
 62
     7
370
    25
100
AcDbLine
 10
975.12937
 20
1970.114357
 30
0.0
 11
950.343248
 21
1973.377512
 31
0.0
  0
LINE
  5
501
330
4F0
100
AcDbEntity
  8
LC-011-003-----0
 62
     7
370
    25
100
AcDbLine
 10
950.343248
 20
1973.377512
 30
0.0
 11
950.343248
 21
1966.851202
 31
0.0
  0
LINE
  5
502
330
4F0
100
AcDbEntity
  8
LC-011-003-----0
 62
     7
370
    25
100
AcDbLine
 10
950.28764
 20
1967.699622
 30
0.0
 11
968.62937
 21
1970.114357
 31
0.0
  0
LINE
  5
503
330
4F0
100
AcDbEntity
  8
LC-011-003-----0
 62
     7
370
    25
100
AcDbLine
 10
968.62937
 20
1970.114357
 30
0.0
 11
950.28764
 21
1972.529092
 31
0.0
  0
LINE
  5
504
330
4F0
100
AcDbEntity
  8
LC-011-003-----0
 62
     7
370
    25
100
AcDbLine
 10
950.232032
 20
1968.548043
 30
0.0
 11
962.12937
 21
1970.114357
 31
0.0
  0
LINE
  5
505
330
4F0
100
AcDbEntity
  8
LC-011-003-----0
 62
     7
370
    25
100
AcDbLine
 10
962.12937
 20
1970.114357
 30
0.0
 11
950.232032
 21
1971.680671
 31
0.0
  0
LINE
  5
506
330
4F0
100
AcDbEntity
  8
LC-011-003-----0
 62
     7
370
    25
100
AcDbLine
 10
950.176423
 20
1969.396463
 30
0.0
 11
955.62937
 21
1970.114357
 31
0.0
  0
LINE
  5
507
330
4F0
100
AcDbEntity
  8
LC-011-003-----0
 62
     7
370
    25
100
AcDbLine
 10
955.62937
 20
1970.114357
 30
0.0
 11
950.176423
 21
1970.832251
 31
0.0
  0
TEXT
  5
508
330
4F0
100
AcDbEntity
  8
LC-011-003-----0
 62
     7
370
    25
100
AcDbText
 10
919.832095
 20
1985.114357
 30
0.0
 40
25.0
  1
4
 41
0.7
  7
LCTX0-400-0-0pDIN-Schrift
 72
     1
 11
928.582095
 21
1985.114357
 31
0.0
100
AcDbText
  0
ENDBLK
  5
4F2
330
4F0
100
AcDbEntity
  8
0
100
AcDbBlockEnd
  0
BLOCK
  5
50B
330
50A
100
AcDbEntity
  8
0
100
AcDbBlockBegin
  2
LCDIM10
 70
     0
 71
     0
 10
0.0
 20
0.0
 30
0.0
  3
LCDIM10
  1

  4
LCDIM10
  0
LINE
  5
50D
330
50A
100
AcDbEntity
  8
LC-009-003-MTH-0
 62
     7
370
    25
100
AcDbLine
 10
975.12937
 20
1887.5
 30
0.0
 11
975.12937
 21
1985.114357
 31
0.0
  0
LINE
  5
50E
330
50A
100
AcDbEntity
  8
LC-009-003-MTH-0
 62
     7
370
    25
100
AcDbLine
 10
1076.72937
 20
1887.5
 30
0.0
 11
1076.72937
 21
1985.114357
 31
0.0
  0
LINE
  5
50F
330
50A
100
AcDbEntity
  8
LC-010-003-MTG-0
 62
     7
370
    25
100
AcDbLine
 10
975.12937
 20
1970.114357
 30
0.0
 11
1076.72937
 21
1970.114357
 31
0.0
  0
LINE
  5
510
330
50A
100
AcDbEntity
  8
LC-011-003-----0
 62
     7
370
    25
100
AcDbLine
 10
999.915492
 20
1973.377512
 30
0.0
 11
975.12937
 21
1970.114357
 31
0.0
  0
LINE
  5
511
330
50A
100
AcDbEntity
  8
LC-011-003-----0
 62
     7
370
    25
100
AcDbLine
 10
975.12937
 20
1970.114357
 30
0.0
 11
999.915492
 21
1966.851202
 31
0.0
  0
LINE
  5
512
330
50A
100
AcDbEntity
  8
LC-011-003-----0
 62
     7
370
    25
100
AcDbLine
 10
999.915492
 20
1966.851202
 30
0.0
 11
999.915492
 21
1973.377512
 31
0.0
  0
LINE
  5
513
330
50A
100
AcDbEntity
  8
LC-011-003-----0
 62
     7
370
    25
100
AcDbLine
 10
999.971101
 20
1972.529092
 30
0.0
 11
981.62937
 21
1970.114357
 31
0.0
  0
LINE
  5
514
330
50A
100
AcDbEntity
  8
LC-011-003-----0
 62
     7
370
    25
100
AcDbLine
 10
981.62937
 20
1970.114357
 30
0.0
 11
999.971101
 21
1967.699622
 31
0.0
  0
LINE
  5
515
330
50A
100
AcDbEntity
  8
LC-011-003-----0
 62
     7
370
    25
100
AcDbLine
 10
1000.026709
 20
1971.680671
 30
0.0
 11
988.12937
 21
1970.114357
 31
0.0
  0
LINE
  5
516
330
50A
100
AcDbEntity
  8
LC-011-003-----0
 62
     7
370
    25
100
AcDbLine
 10
988.12937
 20
1970.114357
 30
0.0
 11
1000.026709
 21
1968.548043
 31
0.0
  0
LINE
  5
517
330
50A
100
AcDbEntity
  8
LC-011-003-----0
 62
     7
370
    25
100
AcDbLine
 10
1000.082317
 20
1970.832251
 30
0.0
 11
994.629371
 21
1970.114357
 31
0.0
  0
LINE
  5
518
330
50A
100
AcDbEntity
  8
LC-011-003-----0
 62
     7
370
    25
100
AcDbLine
 10
994.629371
 20
1970.114357
 30
0.0
 11
1000.082317
 21
1969.396463
 31
0.0
  0
LINE
  5
519
330
50A
100
AcDbEntity
  8
LC-011-003-----0
 62
     7
370
    25
100
AcDbLine
 10
1051.943248
 20
1966.851202
 30
0.0
 11
1076.72937
 21
1970.114357
 31
0.0
  0
LINE
  5
51A
330
50A
100
AcDbEntity
  8
LC-011-003-----0
 62
     7
370
    25
100
AcDbLine
 10
1076.72937
 20
1970.114357
 30
0.0
 11
1051.943248
 21
1973.377512
 31
0.0
  0
LINE
  5
51B
330
50A
100
AcDbEntity
  8
LC-011-003-----0
 62
     7
370
    25
100
AcDbLine
 10
1051.943248
 20
1973.377512
 30
0.0
 11
1051.943248
 21
1966.851202
 31
0.0
  0
LINE
  5
51C
330
50A
100
AcDbEntity
  8
LC-011-003-----0
 62
     7
370
    25
100
AcDbLine
 10
1051.88764
 20
1967.699622
 30
0.0
 11
1070.22937
 21
1970.114357
 31
0.0
  0
LINE
  5
51D
330
50A
100
AcDbEntity
  8
LC-011-003-----0
 62
     7
370
    25
100
AcDbLine
 10
1070.22937
 20
1970.114357
 30
0.0
 11
1051.88764
 21
1972.529092
 31
0.0
  0
LINE
  5
51E
330
50A
100
AcDbEntity
  8
LC-011-003-----0
 62
     7
370
    25
100
AcDbLine
 10
1051.832032
 20
1968.548043
 30
0.0
 11
1063.72937
 21
1970.114357
 31
0.0
  0
LINE
  5
51F
330
50A
100
AcDbEntity
  8
LC-011-003-----0
 62
     7
370
    25
100
AcDbLine
 10
1063.72937
 20
1970.114357
 30
0.0
 11
1051.832032
 21
1971.680671
 31
0.0
  0
LINE
  5
520
330
50A
100
AcDbEntity
  8
LC-011-003-----0
 62
     7
370
    25
100
AcDbLine
 10
1051.776423
 20
1969.396463
 30
0.0
 11
1057.22937
 21
1970.114357
 31
0.0
  0
LINE
  5
521
330
50A
100
AcDbEntity
  8
LC-011-003-----0
 62
     7
370
    25
100
AcDbLine
 10
1057.22937
 20
1970.114357
 30
0.0
 11
1051.776423
 21
1970.832251
 31
0.0
  0
TEXT
  5
522
330
50A
100
AcDbEntity
  8
LC-011-003-----0
 62
     7
370
    25
100
AcDbText
 10
1015.720313
 20
1985.114357
 30
0.0
 40
25.0
  1
4
 41
0.7
  7
LCTX0-400-0-0pDIN-Schrift
 72
     1
 11
1024.470313
 21
1985.114357
 31
0.0
100
AcDbText
  0
ENDBLK
  5
50C
330
50A
100
AcDbEntity
  8
0
100
AcDbBlockEnd
  0
BLOCK
  5
525
330
524
100
AcDbEntity
  8
0
100
AcDbBlockBegin
  2
LCDIM11
 70
     0
 71
     0
 10
0.0
 20
0.0
 30
0.0
  3
LCDIM11
  1

  4
LCDIM11
  0
LINE
  5
527
330
524
100
AcDbEntity
  8
LC-009-003-MTH-0
 62
     7
370
    25
100
AcDbLine
 10
1866.173906
 20
1400.599318
 30
0.0
 11
1958.84243
 21
1400.599318
 31
0.0
  0
LINE
  5
528
330
524
100
AcDbEntity
  8
LC-009-003-MTH-0
 62
     7
370
    25
100
AcDbLine
 10
1866.173906
 20
1816.600682
 30
0.0
 11
1958.84243
 21
1816.600682
 31
0.0
  0
LINE
  5
529
330
524
100
AcDbEntity
  8
LC-010-003-MTG-0
 62
     7
370
    25
100
AcDbLine
 10
1943.84243
 20
1400.599318
 30
0.0
 11
1943.84243
 21
1816.600682
 31
0.0
  0
LINE
  5
52A
330
524
100
AcDbEntity
  8
LC-011-003-----0
 62
     7
370
    25
100
AcDbLine
 10
1940.579275
 20
1425.38544
 30
0.0
 11
1943.84243
 21
1400.599318
 31
0.0
  0
LINE
  5
52B
330
524
100
AcDbEntity
  8
LC-011-003-----0
 62
     7
370
    25
100
AcDbLine
 10
1943.84243
 20
1400.599318
 30
0.0
 11
1947.105585
 21
1425.38544
 31
0.0
  0
LINE
  5
52C
330
524
100
AcDbEntity
  8
LC-011-003-----0
 62
     7
370
    25
100
AcDbLine
 10
1947.105585
 20
1425.38544
 30
0.0
 11
1940.579275
 21
1425.38544
 31
0.0
  0
LINE
  5
52D
330
524
100
AcDbEntity
  8
LC-011-003-----0
 62
     7
370
    25
100
AcDbLine
 10
1941.427696
 20
1425.441048
 30
0.0
 11
1943.84243
 21
1407.099318
 31
0.0
  0
LINE
  5
52E
330
524
100
AcDbEntity
  8
LC-011-003-----0
 62
     7
370
    25
100
AcDbLine
 10
1943.84243
 20
1407.099318
 30
0.0
 11
1946.257165
 21
1425.441048
 31
0.0
  0
LINE
  5
52F
330
524
100
AcDbEntity
  8
LC-011-003-----0
 62
     7
370
    25
100
AcDbLine
 10
1942.276116
 20
1425.496656
 30
0.0
 11
1943.84243
 21
1413.599318
 31
0.0
  0
LINE
  5
530
330
524
100
AcDbEntity
  8
LC-011-003-----0
 62
     7
370
    25
100
AcDbLine
 10
1943.84243
 20
1413.599318
 30
0.0
 11
1945.408745
 21
1425.496656
 31
0.0
  0
LINE
  5
531
330
524
100
AcDbEntity
  8
LC-011-003-----0
 62
     7
370
    25
100
AcDbLine
 10
1943.124536
 20
1425.552265
 30
0.0
 11
1943.84243
 21
1420.099318
 31
0.0
  0
LINE
  5
532
330
524
100
AcDbEntity
  8
LC-011-003-----0
 62
     7
370
    25
100
AcDbLine
 10
1943.84243
 20
1420.099318
 30
0.0
 11
1944.560324
 21
1425.552265
 31
0.0
  0
LINE
  5
533
330
524
100
AcDbEntity
  8
LC-011-003-----0
 62
     7
370
    25
100
AcDbLine
 10
1947.105585
 20
1791.81456
 30
0.0
 11
1943.84243
 21
1816.600682
 31
0.0
  0
LINE
  5
534
330
524
100
AcDbEntity
  8
LC-011-003-----0
 62
     7
370
    25
100
AcDbLine
 10
1943.84243
 20
1816.600682
 30
0.0
 11
1940.579275
 21
1791.81456
 31
0.0
  0
LINE
  5
535
330
524
100
AcDbEntity
  8
LC-011-003-----0
 62
     7
370
    25
100
AcDbLine
 10
1940.579275
 20
1791.81456
 30
0.0
 11
1947.105585
 21
1791.81456
 31
0.0
  0
LINE
  5
536
330
524
100
AcDbEntity
  8
LC-011-003-----0
 62
     7
370
    25
100
AcDbLine
 10
1946.257165
 20
1791.758952
 30
0.0
 11
1943.84243
 21
1810.100682
 31
0.0
  0
LINE
  5
537
330
524
100
AcDbEntity
  8
LC-011-003-----0
 62
     7
370
    25
100
AcDbLine
 10
1943.84243
 20
1810.100682
 30
0.0
 11
1941.427696
 21
1791.758952
 31
0.0
  0
LINE
  5
538
330
524
100
AcDbEntity
  8
LC-011-003-----0
 62
     7
370
    25
100
AcDbLine
 10
1945.408745
 20
1791.703344
 30
0.0
 11
1943.84243
 21
1803.600682
 31
0.0
  0
LINE
  5
539
330
524
100
AcDbEntity
  8
LC-011-003-----0
 62
     7
370
    25
100
AcDbLine
 10
1943.84243
 20
1803.600682
 30
0.0
 11
1942.276116
 21
1791.703344
 31
0.0
  0
LINE
  5
53A
330
524
100
AcDbEntity
  8
LC-011-003-----0
 62
     7
370
    25
100
AcDbLine
 10
1944.560324
 20
1791.647735
 30
0.0
 11
1943.84243
 21
1797.100682
 31
0.0
  0
LINE
  5
53B
330
524
100
AcDbEntity
  8
LC-011-003-----0
 62
     7
370
    25
100
AcDbLine
 10
1943.84243
 20
1797.100682
 30
0.0
 11
1943.124536
 21
1791.647735
 31
0.0
  0
TEXT
  5
53C
330
524
100
AcDbEntity
  8
LC-011-003-----0
 62
     7
370
    25
100
AcDbText
 10
1928.84243
 20
1557.135408
 30
0.0
 40
25.0
  1
16.38
 50
90.0
 41
0.7
  7
LCTX0-400-0-0pDIN-Schrift
 72
     1
 11
1928.84243
 21
1595.885408
 31
0.0
100
AcDbText
  0
ENDBLK
  5
526
330
524
100
AcDbEntity
  8
0
100
AcDbBlockEnd
  0
BLOCK
  5
53F
330
53E
100
AcDbEntity
  8
0
100
AcDbBlockBegin
  2
LCDIM12
 70
     0
 71
     0
 10
0.0
 20
0.0
 30
0.0
  3
LCDIM12
  1

  4
LCDIM12
  0
LINE
  5
541
330
53E
100
AcDbEntity
  8
LC-009-003-MTH-0
 62
     7
370
    25
100
AcDbLine
 10
1513.376236
 20
1755.6
 30
0.0
 11
1513.376236
 21
1316.625951
 31
0.0
  0
LINE
  5
542
330
53E
100
AcDbEntity
  8
LC-009-003-MTH-0
 62
     7
370
    25
100
AcDbLine
 10
1862.738127
 20
1366.2
 30
0.0
 11
1862.738127
 21
1316.625951
 31
0.0
  0
LINE
  5
543
330
53E
100
AcDbEntity
  8
LC-010-003-MTG-0
 62
     7
370
    25
100
AcDbLine
 10
1513.376236
 20
1331.625952
 30
0.0
 11
1862.738127
 21
1331.625952
 31
0.0
  0
LINE
  5
544
330
53E
100
AcDbEntity
  8
LC-011-003-----0
 62
     7
370
    25
100
AcDbLine
 10
1538.162358
 20
1334.889107
 30
0.0
 11
1513.376236
 21
1331.625952
 31
0.0
  0
LINE
  5
545
330
53E
100
AcDbEntity
  8
LC-011-003-----0
 62
     7
370
    25
100
AcDbLine
 10
1513.376236
 20
1331.625952
 30
0.0
 11
1538.162358
 21
1328.362797
 31
0.0
  0
LINE
  5
546
330
53E
100
AcDbEntity
  8
LC-011-003-----0
 62
     7
370
    25
100
AcDbLine
 10
1538.162358
 20
1328.362797
 30
0.0
 11
1538.162358
 21
1334.889107
 31
0.0
  0
LINE
  5
547
330
53E
100
AcDbEntity
  8
LC-011-003-----0
 62
     7
370
    25
100
AcDbLine
 10
1538.217967
 20
1334.040686
 30
0.0
 11
1519.876236
 21
1331.625952
 31
0.0
  0
LINE
  5
548
330
53E
100
AcDbEntity
  8
LC-011-003-----0
 62
     7
370
    25
100
AcDbLine
 10
1519.876236
 20
1331.625952
 30
0.0
 11
1538.217967
 21
1329.211217
 31
0.0
  0
LINE
  5
549
330
53E
100
AcDbEntity
  8
LC-011-003-----0
 62
     7
370
    25
100
AcDbLine
 10
1538.273575
 20
1333.192266
 30
0.0
 11
1526.376236
 21
1331.625952
 31
0.0
  0
LINE
  5
54A
330
53E
100
AcDbEntity
  8
LC-011-003-----0
 62
     7
370
    25
100
AcDbLine
 10
1526.376236
 20
1331.625952
 30
0.0
 11
1538.273575
 21
1330.059637
 31
0.0
  0
LINE
  5
54B
330
53E
100
AcDbEntity
  8
LC-011-003-----0
 62
     7
370
    25
100
AcDbLine
 10
1538.329183
 20
1332.343846
 30
0.0
 11
1532.876237
 21
1331.625952
 31
0.0
  0
LINE
  5
54C
330
53E
100
AcDbEntity
  8
LC-011-003-----0
 62
     7
370
    25
100
AcDbLine
 10
1532.876237
 20
1331.625952
 30
0.0
 11
1538.329183
 21
1330.908058
 31
0.0
  0
LINE
  5
54D
330
53E
100
AcDbEntity
  8
LC-011-003-----0
 62
     7
370
    25
100
AcDbLine
 10
1837.952005
 20
1328.362797
 30
0.0
 11
1862.738127
 21
1331.625952
 31
0.0
  0
LINE
  5
54E
330
53E
100
AcDbEntity
  8
LC-011-003-----0
 62
     7
370
    25
100
AcDbLine
 10
1862.738127
 20
1331.625952
 30
0.0
 11
1837.952005
 21
1334.889107
 31
0.0
  0
LINE
  5
54F
330
53E
100
AcDbEntity
  8
LC-011-003-----0
 62
     7
370
    25
100
AcDbLine
 10
1837.952005
 20
1334.889107
 30
0.0
 11
1837.952005
 21
1328.362797
 31
0.0
  0
LINE
  5
550
330
53E
100
AcDbEntity
  8
LC-011-003-----0
 62
     7
370
    25
100
AcDbLine
 10
1837.896397
 20
1329.211217
 30
0.0
 11
1856.238127
 21
1331.625952
 31
0.0
  0
LINE
  5
551
330
53E
100
AcDbEntity
  8
LC-011-003-----0
 62
     7
370
    25
100
AcDbLine
 10
1856.238127
 20
1331.625952
 30
0.0
 11
1837.896397
 21
1334.040686
 31
0.0
  0
LINE
  5
552
330
53E
100
AcDbEntity
  8
LC-011-003-----0
 62
     7
370
    25
100
AcDbLine
 10
1837.840788
 20
1330.059637
 30
0.0
 11
1849.738127
 21
1331.625952
 31
0.0
  0
LINE
  5
553
330
53E
100
AcDbEntity
  8
LC-011-003-----0
 62
     7
370
    25
100
AcDbLine
 10
1849.738127
 20
1331.625952
 30
0.0
 11
1837.840788
 21
1333.192266
 31
0.0
  0
LINE
  5
554
330
53E
100
AcDbEntity
  8
LC-011-003-----0
 62
     7
370
    25
100
AcDbLine
 10
1837.78518
 20
1330.908058
 30
0.0
 11
1843.238127
 21
1331.625952
 31
0.0
  0
LINE
  5
555
330
53E
100
AcDbEntity
  8
LC-011-003-----0
 62
     7
370
    25
100
AcDbLine
 10
1843.238127
 20
1331.625952
 30
0.0
 11
1837.78518
 21
1332.343846
 31
0.0
  0
TEXT
  5
556
330
53E
100
AcDbEntity
  8
LC-011-003-----0
 62
     7
370
    25
100
AcDbText
 10
1644.337822
 20
1346.625952
 30
0.0
 40
25.0
  1
13.75
 41
0.7
  7
LCTX0-400-0-0pDIN-Schrift
 72
     1
 11
1683.087822
 21
1346.625952
 31
0.0
100
AcDbText
  0
ENDBLK
  5
540
330
53E
100
AcDbEntity
  8
0
100
AcDbBlockEnd
  0
BLOCK
  5
559
330
558
100
AcDbEntity
  8
0
100
AcDbBlockBegin
  2
LCDIM13
 70
     0
 71
     0
 10
0.0
 20
0.0
 30
0.0
  3
LCDIM13
  1

  4
LCDIM13
  0
LINE
  5
55B
330
558
100
AcDbEntity
  8
LC-009-003-MTH-0
 62
     7
370
    25
100
AcDbLine
 10
353.709719
 20
773.90807
 30
0.0
 11
353.709719
 21
690.888262
 31
0.0
  0
LINE
  5
55C
330
558
100
AcDbEntity
  8
LC-009-003-MTH-0
 62
     7
370
    25
100
AcDbLine
 10
762.809719
 20
773.90807
 30
0.0
 11
762.809719
 21
690.888262
 31
0.0
  0
LINE
  5
55D
330
558
100
AcDbEntity
  8
LC-010-003-MTG-0
 62
     7
370
    25
100
AcDbLine
 10
353.709719
 20
705.888263
 30
0.0
 11
762.809719
 21
705.888263
 31
0.0
  0
LINE
  5
55E
330
558
100
AcDbEntity
  8
LC-011-003-----0
 62
     7
370
    25
100
AcDbLine
 10
378.495841
 20
709.151418
 30
0.0
 11
353.709719
 21
705.888263
 31
0.0
  0
LINE
  5
55F
330
558
100
AcDbEntity
  8
LC-011-003-----0
 62
     7
370
    25
100
AcDbLine
 10
353.709719
 20
705.888263
 30
0.0
 11
378.495841
 21
702.625108
 31
0.0
  0
LINE
  5
560
330
558
100
AcDbEntity
  8
LC-011-003-----0
 62
     7
370
    25
100
AcDbLine
 10
378.495841
 20
702.625108
 30
0.0
 11
378.495841
 21
709.151418
 31
0.0
  0
LINE
  5
561
330
558
100
AcDbEntity
  8
LC-011-003-----0
 62
     7
370
    25
100
AcDbLine
 10
378.551449
 20
708.302997
 30
0.0
 11
360.209719
 21
705.888263
 31
0.0
  0
LINE
  5
562
330
558
100
AcDbEntity
  8
LC-011-003-----0
 62
     7
370
    25
100
AcDbLine
 10
360.209719
 20
705.888263
 30
0.0
 11
378.551449
 21
703.473528
 31
0.0
  0
LINE
  5
563
330
558
100
AcDbEntity
  8
LC-011-003-----0
 62
     7
370
    25
100
AcDbLine
 10
378.607058
 20
707.454577
 30
0.0
 11
366.709719
 21
705.888263
 31
0.0
  0
LINE
  5
564
330
558
100
AcDbEntity
  8
LC-011-003-----0
 62
     7
370
    25
100
AcDbLine
 10
366.709719
 20
705.888263
 30
0.0
 11
378.607058
 21
704.321948
 31
0.0
  0
LINE
  5
565
330
558
100
AcDbEntity
  8
LC-011-003-----0
 62
     7
370
    25
100
AcDbLine
 10
378.662666
 20
706.606157
 30
0.0
 11
373.209719
 21
705.888263
 31
0.0
  0
LINE
  5
566
330
558
100
AcDbEntity
  8
LC-011-003-----0
 62
     7
370
    25
100
AcDbLine
 10
373.209719
 20
705.888263
 30
0.0
 11
378.662666
 21
705.170369
 31
0.0
  0
LINE
  5
567
330
558
100
AcDbEntity
  8
LC-011-003-----0
 62
     7
370
    25
100
AcDbLine
 10
738.023597
 20
702.625108
 30
0.0
 11
762.809719
 21
705.888263
 31
0.0
  0
LINE
  5
568
330
558
100
AcDbEntity
  8
LC-011-003-----0
 62
     7
370
    25
100
AcDbLine
 10
762.809719
 20
705.888263
 30
0.0
 11
738.023597
 21
709.151418
 31
0.0
  0
LINE
  5
569
330
558
100
AcDbEntity
  8
LC-011-003-----0
 62
     7
370
    25
100
AcDbLine
 10
738.023597
 20
709.151418
 30
0.0
 11
738.023597
 21
702.625108
 31
0.0
  0
LINE
  5
56A
330
558
100
AcDbEntity
  8
LC-011-003-----0
 62
     7
370
    25
100
AcDbLine
 10
737.967989
 20
703.473528
 30
0.0
 11
756.309719
 21
705.888263
 31
0.0
  0
LINE
  5
56B
330
558
100
AcDbEntity
  8
LC-011-003-----0
 62
     7
370
    25
100
AcDbLine
 10
756.309719
 20
705.888263
 30
0.0
 11
737.967989
 21
708.302997
 31
0.0
  0
LINE
  5
56C
330
558
100
AcDbEntity
  8
LC-011-003-----0
 62
     7
370
    25
100
AcDbLine
 10
737.91238
 20
704.321948
 30
0.0
 11
749.809719
 21
705.888263
 31
0.0
  0
LINE
  5
56D
330
558
100
AcDbEntity
  8
LC-011-003-----0
 62
     7
370
    25
100
AcDbLine
 10
749.809719
 20
705.888263
 30
0.0
 11
737.91238
 21
707.454577
 31
0.0
  0
LINE
  5
56E
330
558
100
AcDbEntity
  8
LC-011-003-----0
 62
     7
370
    25
100
AcDbLine
 10
737.856772
 20
705.170369
 30
0.0
 11
743.309719
 21
705.888263
 31
0.0
  0
LINE
  5
56F
330
558
100
AcDbEntity
  8
LC-011-003-----0
 62
     7
370
    25
100
AcDbLine
 10
743.309719
 20
705.888263
 30
0.0
 11
737.856772
 21
706.606157
 31
0.0
  0
TEXT
  5
570
330
558
100
AcDbEntity
  8
LC-011-003-----0
 62
     7
370
    25
100
AcDbText
 10
518.748109
 20
720.888263
 30
0.0
 40
25.0
  1
32.21
 41
0.7
  7
LCTX0-400-0-0pDIN-Schrift
 72
     1
 11
553.748109
 21
720.888263
 31
0.0
100
AcDbText
  0
ENDBLK
  5
55A
330
558
100
AcDbEntity
  8
0
100
AcDbBlockEnd
  0
BLOCK
  5
573
330
572
100
AcDbEntity
  8
0
100
AcDbBlockBegin
  2
LCDIM14
 70
     0
 71
     0
 10
0.0
 20
0.0
 30
0.0
  3
LCDIM14
  1

  4
LCDIM14
  0
LINE
  5
575
330
572
100
AcDbEntity
  8
LC-009-003-MTH-0
 62
     7
370
    25
100
AcDbLine
 10
757.809719
 20
768.90807
 30
0.0
 11
862.993866
 21
768.90807
 31
0.0
  0
LINE
  5
576
330
572
100
AcDbEntity
  8
LC-009-003-MTH-0
 62
     7
370
    25
100
AcDbLine
 10
757.809719
 20
1038.30807
 30
0.0
 11
862.993866
 21
1038.30807
 31
0.0
  0
LINE
  5
577
330
572
100
AcDbEntity
  8
LC-010-003-MTG-0
 62
     7
370
    25
100
AcDbLine
 10
847.993866
 20
768.90807
 30
0.0
 11
847.993866
 21
1038.30807
 31
0.0
  0
LINE
  5
578
330
572
100
AcDbEntity
  8
LC-011-003-----0
 62
     7
370
    25
100
AcDbLine
 10
844.730711
 20
793.694192
 30
0.0
 11
847.993866
 21
768.90807
 31
0.0
  0
LINE
  5
579
330
572
100
AcDbEntity
  8
LC-011-003-----0
 62
     7
370
    25
100
AcDbLine
 10
847.993866
 20
768.90807
 30
0.0
 11
851.257021
 21
793.694192
 31
0.0
  0
LINE
  5
57A
330
572
100
AcDbEntity
  8
LC-011-003-----0
 62
     7
370
    25
100
AcDbLine
 10
851.257021
 20
793.694192
 30
0.0
 11
844.730711
 21
793.694192
 31
0.0
  0
LINE
  5
57B
330
572
100
AcDbEntity
  8
LC-011-003-----0
 62
     7
370
    25
100
AcDbLine
 10
845.579131
 20
793.7498
 30
0.0
 11
847.993866
 21
775.40807
 31
0.0
  0
LINE
  5
57C
330
572
100
AcDbEntity
  8
LC-011-003-----0
 62
     7
370
    25
100
AcDbLine
 10
847.993866
 20
775.40807
 30
0.0
 11
850.4086
 21
793.7498
 31
0.0
  0
LINE
  5
57D
330
572
100
AcDbEntity
  8
LC-011-003-----0
 62
     7
370
    25
100
AcDbLine
 10
846.427552
 20
793.805409
 30
0.0
 11
847.993866
 21
781.90807
 31
0.0
  0
LINE
  5
57E
330
572
100
AcDbEntity
  8
LC-011-003-----0
 62
     7
370
    25
100
AcDbLine
 10
847.993866
 20
781.90807
 30
0.0
 11
849.56018
 21
793.805409
 31
0.0
  0
LINE
  5
57F
330
572
100
AcDbEntity
  8
LC-011-003-----0
 62
     7
370
    25
100
AcDbLine
 10
847.275972
 20
793.861017
 30
0.0
 11
847.993866
 21
788.40807
 31
0.0
  0
LINE
  5
580
330
572
100
AcDbEntity
  8
LC-011-003-----0
 62
     7
370
    25
100
AcDbLine
 10
847.993866
 20
788.40807
 30
0.0
 11
848.71176
 21
793.861017
 31
0.0
  0
LINE
  5
581
330
572
100
AcDbEntity
  8
LC-011-003-----0
 62
     7
370
    25
100
AcDbLine
 10
851.257021
 20
1013.521948
 30
0.0
 11
847.993866
 21
1038.30807
 31
0.0
  0
LINE
  5
582
330
572
100
AcDbEntity
  8
LC-011-003-----0
 62
     7
370
    25
100
AcDbLine
 10
847.993866
 20
1038.30807
 30
0.0
 11
844.730711
 21
1013.521948
 31
0.0
  0
LINE
  5
583
330
572
100
AcDbEntity
  8
LC-011-003-----0
 62
     7
370
    25
100
AcDbLine
 10
844.730711
 20
1013.521948
 30
0.0
 11
851.257021
 21
1013.521948
 31
0.0
  0
LINE
  5
584
330
572
100
AcDbEntity
  8
LC-011-003-----0
 62
     7
370
    25
100
AcDbLine
 10
850.4086
 20
1013.46634
 30
0.0
 11
847.993866
 21
1031.80807
 31
0.0
  0
LINE
  5
585
330
572
100
AcDbEntity
  8
LC-011-003-----0
 62
     7
370
    25
100
AcDbLine
 10
847.993866
 20
1031.80807
 30
0.0
 11
845.579131
 21
1013.46634
 31
0.0
  0
LINE
  5
586
330
572
100
AcDbEntity
  8
LC-011-003-----0
 62
     7
370
    25
100
AcDbLine
 10
849.56018
 20
1013.410731
 30
0.0
 11
847.993866
 21
1025.30807
 31
0.0
  0
LINE
  5
587
330
572
100
AcDbEntity
  8
LC-011-003-----0
 62
     7
370
    25
100
AcDbLine
 10
847.993866
 20
1025.30807
 30
0.0
 11
846.427552
 21
1013.410731
 31
0.0
  0
LINE
  5
588
330
572
100
AcDbEntity
  8
LC-011-003-----0
 62
     7
370
    25
100
AcDbLine
 10
848.71176
 20
1013.355123
 30
0.0
 11
847.993866
 21
1018.80807
 31
0.0
  0
LINE
  5
589
330
572
100
AcDbEntity
  8
LC-011-003-----0
 62
     7
370
    25
100
AcDbLine
 10
847.993866
 20
1018.80807
 30
0.0
 11
847.275972
 21
1013.355123
 31
0.0
  0
TEXT
  5
58A
330
572
100
AcDbEntity
  8
LC-011-003-----0
 62
     7
370
    25
100
AcDbText
 10
832.993866
 20
865.354465
 30
0.0
 40
25.0
  1
21.21
 50
90.0
 41
0.7
  7
LCTX0-400-0-0pDIN-Schrift
 72
     1
 11
832.993866
 21
900.354465
 31
0.0
100
AcDbText
  0
ENDBLK
  5
574
330
572
100
AcDbEntity
  8
0
100
AcDbBlockEnd
  0
BLOCK
  5
58D
330
58C
100
AcDbEntity
  8
0
100
AcDbBlockBegin
  2
LCDIM15
 70
     0
 71
     0
 10
0.0
 20
0.0
 30
0.0
  3
LCDIM15
  1

  4
LCDIM15
  0
TEXT
  5
58F
330
58C
100
AcDbEntity
  8
LC-011-003-----0
 62
     7
370
    25
100
AcDbText
 10
415.412901
 20
992.652383
 30
0.0
 40
25.0
  1
R.39
 50
311.945099
 41
0.7
  7
LCTX0-400-0-0pDIN-Schrift
100
AcDbText
  0
LINE
  5
590
330
58C
100
AcDbEntity
  8
LC-010-003-MTG-0
 62
     7
370
    25
100
AcDbLine
 10
434.305584
 20
949.188417
 30
0.0
 11
355.367627
 21
1037.026997
 31
0.0
  0
LINE
  5
591
330
58C
100
AcDbEntity
  8
LC-011-003-----0
 62
     7
370
    25
100
AcDbLine
 10
374.362212
 20
1020.77259
 30
0.0
 11
355.367627
 21
1037.026997
 31
0.0
  0
LINE
  5
592
330
58C
100
AcDbEntity
  8
LC-011-003-----0
 62
     7
370
    25
100
AcDbLine
 10
355.367627
 20
1037.026997
 30
0.0
 11
369.508037
 21
1016.410285
 31
0.0
  0
LINE
  5
593
330
58C
100
AcDbEntity
  8
LC-011-003-----0
 62
     7
370
    25
100
AcDbLine
 10
369.508037
 20
1016.410285
 30
0.0
 11
374.362212
 21
1020.77259
 31
0.0
  0
LINE
  5
594
330
58C
100
AcDbEntity
  8
LC-011-003-----0
 62
     7
370
    25
100
AcDbLine
 10
373.768339
 20
1020.16413
 30
0.0
 11
359.712346
 21
1032.192391
 31
0.0
  0
LINE
  5
595
330
58C
100
AcDbEntity
  8
LC-011-003-----0
 62
     7
370
    25
100
AcDbLine
 10
359.712346
 20
1032.192391
 30
0.0
 11
370.176249
 21
1016.936024
 31
0.0
  0
LINE
  5
596
330
58C
100
AcDbEntity
  8
LC-011-003-----0
 62
     7
370
    25
100
AcDbLine
 10
373.174465
 20
1019.555669
 30
0.0
 11
364.057065
 21
1027.357785
 31
0.0
  0
LINE
  5
597
330
58C
100
AcDbEntity
  8
LC-011-003-----0
 62
     7
370
    25
100
AcDbLine
 10
364.057065
 20
1027.357785
 30
0.0
 11
370.844461
 21
1017.461763
 31
0.0
  0
LINE
  5
598
330
58C
100
AcDbEntity
  8
LC-011-003-----0
 62
     7
370
    25
100
AcDbLine
 10
372.580592
 20
1018.947209
 30
0.0
 11
368.401784
 21
1022.523179
 31
0.0
  0
LINE
  5
599
330
58C
100
AcDbEntity
  8
LC-011-003-----0
 62
     7
370
    25
100
AcDbLine
 10
368.401784
 20
1022.523179
 30
0.0
 11
371.512674
 21
1017.987502
 31
0.0
  0
ENDBLK
  5
58E
330
58C
100
AcDbEntity
  8
0
100
AcDbBlockEnd
  0
ENDSEC
  0
SECTION
  2
ENTITIES
  0
INSERT
  5
103
330
1F
100
AcDbEntity
  8
LC-003-230-ZVN-0
 62
     7
370
    25
100
AcDbBlockReference
  2
SYM1
 10
0.0
 20
0.0
 30
0.0
  0
ARC
  5
104
102
{ACAD_REACTORS
330
59B
102
}
330
1F
100
AcDbEntity
  8
LC-002-002-----0
 62
     7
370
    50
100
AcDbCircle
 10
508.42937
 20
1797.0
 30
0.0
 40
20.0
100
AcDbArc
 50
90.0
 51
180.0
  0
ARC
  5
105
102
{ACAD_REACTORS
330
59B
102
}
330
1F
100
AcDbEntity
  8
LC-002-002-----0
 62
     7
370
    50
100
AcDbCircle
 10
1238.62937
 20
1797.0
 30
0.0
 40
20.0
100
AcDbArc
 50
0.0
 51
90.0
  0
ARC
  5
106
102
{ACAD_REACTORS
330
59B
102
}
330
1F
100
AcDbEntity
  8
LC-002-002-----0
 62
     7
370
    50
100
AcDbCircle
 10
1238.62937
 20
1420.2
 30
0.0
 40
20.0
100
AcDbArc
 50
270.0
 51
0.0
  0
ARC
  5
107
102
{ACAD_REACTORS
330
59B
102
}
330
1F
100
AcDbEntity
  8
LC-002-002-----0
 62
     7
370
    50
100
AcDbCircle
 10
508.42937
 20
1420.2
 30
0.0
 40
20.0
100
AcDbArc
 50
180.0
 51
270.0
  0
ARC
  5
108
102
{ACAD_REACTORS
330
59B
102
}
330
1F
100
AcDbEntity
  8
LC-002-002-----0
 62
     7
370
    50
100
AcDbCircle
 10
906.42937
 20
1797.0
 30
0.0
 40
20.0
100
AcDbArc
 50
90.0
 51
180.0
  0
ARC
  5
109
102
{ACAD_REACTORS
330
59B
102
}
330
1F
100
AcDbEntity
  8
LC-002-002-----0
 62
     7
370
    50
100
AcDbCircle
 10
840.62937
 20
1797.0
 30
0.0
 40
20.0
100
AcDbArc
 50
0.0
 51
90.0
  0
ARC
  5
10A
102
{ACAD_REACTORS
330
59B
102
}
330
1F
100
AcDbEntity
  8
LC-002-002-----0
 62
     7
370
    50
100
AcDbCircle
 10
840.62937
 20
1420.2
 30
0.0
 40
20.0
100
AcDbArc
 50
270.0
 51
0.0
  0
LINE
  5
10B
102
{ACAD_REACTORS
330
59B
102
}
330
1F
100
AcDbEntity
  8
LC-002-002-----0
 62
     7
370
    25
100
AcDbLine
 10
945.100186
 20
1798.31998
 30
0.0
 11
1199.983529
 21
1798.319582
 31
0.0
  0
LINE
  5
10C
102
{ACAD_REACTORS
330
59B
102
}
330
1F
100
AcDbEntity
  8
LC-002-002-----0
 62
     7
370
    25
100
AcDbLine
 10
905.100206
 20
1758.401362
 30
0.0
 11
904.489608
 21
1458.287354
 31
0.0
  0
LINE
  5
10D
102
{ACAD_REACTORS
330
59B
102
}
330
1F
100
AcDbEntity
  8
LC-002-002-----0
 62
     7
370
    25
100
AcDbLine
 10
944.48956
 20
1418.205972
 30
0.0
 11
1200.59425
 21
1418.206193
 31
0.0
  0
ARC
  5
10E
102
{ACAD_REACTORS
330
59B
102
}
330
1F
100
AcDbEntity
  8
LC-002-002-----0
 62
     7
370
    50
100
AcDbCircle
 10
906.42937
 20
1420.2
 30
0.0
 40
20.0
100
AcDbArc
 50
180.0
 51
270.0
  0
LINE
  5
10F
102
{ACAD_REACTORS
330
59B
102
}
330
1F
100
AcDbEntity
  8
LC-002-002-----0
 62
     7
370
    25
100
AcDbLine
 10
1240.594133
 20
1458.287595
 30
0.0
 11
1239.983384
 21
1758.400984
 31
0.0
  0
LINE
  5
110
102
{ACAD_REACTORS
330
59B
102
}
330
1F
100
AcDbEntity
  8
LC-002-002-----0
 62
     7
370
    25
100
AcDbLine
 10
1202.797639
 20
1774.023372
 30
0.0
 11
942.286579
 21
1774.023412
 31
0.0
  0
LINE
  5
111
102
{ACAD_REACTORS
330
59B
102
}
330
1F
100
AcDbEntity
  8
LC-002-002-----0
 62
     7
370
    25
100
AcDbLine
 10
928.786577
 20
1760.525519
 30
0.0
 11
928.738979
 21
1455.440286
 31
0.0
  0
LINE
  5
112
102
{ACAD_REACTORS
330
59B
102
}
330
1F
100
AcDbEntity
  8
LC-002-002-----0
 62
     7
370
    25
100
AcDbLine
 10
942.238981
 20
1441.93818
 30
0.0
 11
1202.844861
 21
1441.938209
 31
0.0
  0
LINE
  5
113
102
{ACAD_REACTORS
330
59B
102
}
330
1F
100
AcDbEntity
  8
LC-002-002-----0
 62
     7
370
    25
100
AcDbLine
 10
1216.34486
 20
1455.440298
 30
0.0
 11
1216.297637
 21
1760.525462
 31
0.0
  0
LINE
  5
114
102
{ACAD_REACTORS
330
59B
102
}
330
1F
100
AcDbEntity
  8
LC-002-002-----0
 62
     7
370
    25
100
AcDbLine
 10
842.569132
 20
1458.287355
 30
0.0
 11
841.958534
 21
1758.401362
 31
0.0
  0
LINE
  5
115
102
{ACAD_REACTORS
330
59B
102
}
330
1F
100
AcDbEntity
  8
LC-002-002-----0
 62
     7
370
    25
100
AcDbLine
 10
801.958554
 20
1798.31998
 30
0.0
 11
547.075211
 21
1798.319582
 31
0.0
  0
LINE
  5
116
102
{ACAD_REACTORS
330
59B
102
}
330
1F
100
AcDbEntity
  8
LC-002-002-----0
 62
     7
370
    25
100
AcDbLine
 10
507.075357
 20
1758.400984
 30
0.0
 11
506.464608
 21
1458.287595
 31
0.0
  0
LINE
  5
117
102
{ACAD_REACTORS
330
59B
102
}
330
1F
100
AcDbEntity
  8
LC-002-002-----0
 62
     7
370
    25
100
AcDbLine
 10
546.46449
 20
1418.206193
 30
0.0
 11
802.56918
 21
1418.205973
 31
0.0
  0
LINE
  5
11A
102
{ACAD_REACTORS
330
59B
102
}
330
1F
100
AcDbEntity
  8
LC-004-006-MLN-0
 62
     7
370
    25
100
AcDbLine
 10
873.52937
 20
1849.5
 30
0.0
 11
873.52937
 21
1928.0
 31
0.0
  0
LINE
  5
11B
102
{ACAD_REACTORS
330
59B
102
}
330
1F
100
AcDbEntity
  8
LC-002-002-----0
 62
     7
370
    25
100
AcDbLine
 10
818.319761
 20
1455.440286
 30
0.0
 11
818.272164
 21
1760.525519
 31
0.0
  0
LINE
  5
11C
102
{ACAD_REACTORS
330
59B
102
}
330
1F
100
AcDbEntity
  8
LC-002-002-----0
 62
     7
370
    25
100
AcDbLine
 10
804.772162
 20
1774.023412
 30
0.0
 11
544.261101
 21
1774.023372
 31
0.0
  0
LINE
  5
11D
102
{ACAD_REACTORS
330
59B
102
}
330
1F
100
AcDbEntity
  8
LC-002-002-----0
 62
     7
370
    25
100
AcDbLine
 10
530.761103
 20
1760.525462
 30
0.0
 11
530.713881
 21
1455.440298
 31
0.0
  0
LINE
  5
11E
102
{ACAD_REACTORS
330
59B
102
}
330
1F
100
AcDbEntity
  8
LC-002-002-----0
 62
     7
370
    25
100
AcDbLine
 10
544.213879
 20
1441.938209
 30
0.0
 11
804.81976
 21
1441.93818
 31
0.0
  0
LINE
  5
11F
102
{ACAD_REACTORS
330
59B
102
}
330
1F
100
AcDbEntity
  8
LC-004-006-MLN-0
 62
     7
370
    25
100
AcDbLine
 10
1097.22937
 20
1870.0
 30
0.0
 11
1056.22937
 21
1870.0
 31
0.0
  0
ARC
  5
121
102
{ACAD_REACTORS
330
59B
102
}
330
1F
100
AcDbEntity
  8
LC-005-002-RND-0
 62
     7
370
    25
100
AcDbCircle
 10
801.958617
 20
1758.31998
 30
0.0
 40
40.00000000000004
100
AcDbArc
 50
0.116571
 51
90.000089
  0
ARC
  5
122
102
{ACAD_REACTORS
330
59B
102
}
330
1F
100
AcDbEntity
  8
LC-005-002-RND-0
 62
     7
370
    25
100
AcDbCircle
 10
547.075274
 20
1758.319582
 30
0.0
 40
40.00000000000014
100
AcDbArc
 50
90.000089
 51
179.8834
  0
ARC
  5
123
102
{ACAD_REACTORS
330
59B
102
}
330
1F
100
AcDbEntity
  8
LC-005-002-RND-0
 62
     7
370
    25
100
AcDbCircle
 10
546.464525
 20
1458.206193
 30
0.0
 40
39.99999999999996
100
AcDbArc
 50
179.8834
 51
269.999951
  0
ARC
  5
124
102
{ACAD_REACTORS
330
59B
102
}
330
1F
100
AcDbEntity
  8
LC-005-002-RND-0
 62
     7
370
    25
100
AcDbCircle
 10
944.489525
 20
1458.205972
 30
0.0
 40
39.99999999999996
100
AcDbArc
 50
179.883429
 51
270.000049
  0
CIRCLE
  5
125
102
{ACAD_REACTORS
330
59B
102
}
330
1F
100
AcDbEntity
  8
LC-002-002-----0
  6
DASHED
 62
     7
370
    25
100
AcDbCircle
 10
873.52937
 20
1870.0
 30
0.0
 40
17.5
  0
ARC
  5
126
102
{ACAD_REACTORS
330
59B
102
}
330
1F
100
AcDbEntity
  8
LC-005-002-RND-0
 62
     7
370
    25
100
AcDbCircle
 10
945.100123
 20
1758.31998
 30
0.0
 40
40.00000000000001
100
AcDbArc
 50
89.99991
 51
179.883429
  0
ARC
  5
127
102
{ACAD_REACTORS
330
59B
102
}
330
1F
100
AcDbEntity
  8
LC-005-002-RND-0
 62
     7
370
    25
100
AcDbCircle
 10
1199.983467
 20
1758.319582
 30
0.0
 40
39.99999999999996
100
AcDbArc
 50
0.1166
 51
89.99991
  0
ARC
  5
128
102
{ACAD_REACTORS
330
59B
102
}
330
1F
100
AcDbEntity
  8
LC-005-002-RND-0
 62
     7
370
    25
100
AcDbCircle
 10
1200.594216
 20
1458.206193
 30
0.0
 40
40.0000000000001
100
AcDbArc
 50
270.000049
 51
0.1166
  0
ARC
  5
129
102
{ACAD_REACTORS
330
59B
102
}
330
1F
100
AcDbEntity
  8
LC-005-002-RND-0
 62
     7
370
    25
100
AcDbCircle
 10
802.569215
 20
1458.205973
 30
0.0
 40
39.99999999999999
100
AcDbArc
 50
269.999951
 51
0.116571
  0
ARC
  5
12A
102
{ACAD_REACTORS
330
59B
102
}
330
1F
100
AcDbEntity
  8
LC-005-002-RND-0
 62
     7
370
    25
100
AcDbCircle
 10
544.261103
 20
1760.523372
 30
0.0
 40
13.50000000000016
100
AcDbArc
 50
90.000009
 51
179.991132
  0
ARC
  5
12B
102
{ACAD_REACTORS
330
59B
102
}
330
1F
100
AcDbEntity
  8
LC-005-002-RND-0
 62
     7
370
    25
100
AcDbCircle
 10
544.213881
 20
1455.438209
 30
0.0
 40
13.49999999999996
100
AcDbArc
 50
179.991132
 51
269.999994
  0
ARC
  5
12C
102
{ACAD_REACTORS
330
59B
102
}
330
1F
100
AcDbEntity
  8
LC-005-002-RND-0
 62
     7
370
    25
100
AcDbCircle
 10
804.819761
 20
1455.43818
 30
0.0
 40
13.50000000000009
100
AcDbArc
 50
269.999994
 51
0.008939
  0
ARC
  5
12D
102
{ACAD_REACTORS
330
59B
102
}
330
1F
100
AcDbEntity
  8
LC-005-002-RND-0
 62
     7
370
    25
100
AcDbCircle
 10
804.772164
 20
1760.523412
 30
0.0
 40
13.50000000000002
100
AcDbArc
 50
0.008939
 51
90.000009
  0
ARC
  5
12E
102
{ACAD_REACTORS
330
59B
102
}
330
1F
100
AcDbEntity
  8
LC-005-002-RND-0
 62
     7
370
    25
100
AcDbCircle
 10
942.286577
 20
1760.523412
 30
0.0
 40
13.50000000000016
100
AcDbArc
 50
89.999991
 51
179.991061
  0
ARC
  5
12F
102
{ACAD_REACTORS
330
59B
102
}
330
1F
100
AcDbEntity
  8
LC-005-002-RND-0
 62
     7
370
    25
100
AcDbCircle
 10
942.238979
 20
1455.43818
 30
0.0
 40
13.50000000000002
100
AcDbArc
 50
179.991061
 51
270.000006
  0
ARC
  5
130
102
{ACAD_REACTORS
330
59B
102
}
330
1F
100
AcDbEntity
  8
LC-005-002-RND-0
 62
     7
370
    25
100
AcDbCircle
 10
1202.797637
 20
1760.523372
 30
0.0
 40
13.50000000000007
100
AcDbArc
 50
0.008868
 51
89.999991
  0
ARC
  5
131
102
{ACAD_REACTORS
330
59B
102
}
330
1F
100
AcDbEntity
  8
LC-005-002-RND-0
 62
     7
370
    25
100
AcDbCircle
 10
1202.84486
 20
1455.438209
 30
0.0
 40
13.50000000000009
100
AcDbArc
 50
270.000006
 51
0.008868
  0
CIRCLE
  5
132
102
{ACAD_REACTORS
330
59B
102
}
330
1F
100
AcDbEntity
  8
LC-002-002-----0
 62
     7
370
    50
100
AcDbCircle
 10
674.52937
 20
1705.6
 30
0.0
 40
57.5
  0
CIRCLE
  5
133
102
{ACAD_REACTORS
330
59B
102
}
330
1F
100
AcDbEntity
  8
LC-002-002-----0
 62
     7
370
    50
100
AcDbCircle
 10
674.52937
 20
1705.6
 30
0.0
 40
46.0
  0
LINE
  5
134
102
{ACAD_REACTORS
330
59B
102
}
330
1F
100
AcDbEntity
  8
LC-002-002-----0
 62
     7
370
    50
100
AcDbLine
 10
1238.62937
 20
1817.0
 30
0.0
 11
508.42937
 21
1817.0
 31
0.0
  0
LINE
  5
135
102
{ACAD_REACTORS
330
59B
102
}
330
1F
100
AcDbEntity
  8
LC-002-002-----0
 62
     7
370
    50
100
AcDbLine
 10
1258.62937
 20
1420.2
 30
0.0
 11
1258.62937
 21
1797.0
 31
0.0
  0
LINE
  5
136
102
{ACAD_REACTORS
330
59B
102
}
330
1F
100
AcDbEntity
  8
LC-002-002-----0
 62
     7
370
    50
100
AcDbLine
 10
508.42937
 20
1400.2
 30
0.0
 11
1238.62937
 21
1400.2
 31
0.0
  0
LINE
  5
137
102
{ACAD_REACTORS
330
59B
102
}
330
1F
100
AcDbEntity
  8
LC-002-002-----0
 62
     7
370
    50
100
AcDbLine
 10
488.42937
 20
1797.0
 30
0.0
 11
488.42937
 21
1420.2
 31
0.0
  0
ARC
  5
138
102
{ACAD_REACTORS
330
59B
102
}
330
1F
100
AcDbEntity
  8
LC-002-002-----0
 62
     7
370
    50
100
AcDbCircle
 10
479.82937
 20
1899.6
 30
0.0
 40
25.39999999999986
100
AcDbArc
 50
90.0
 51
180.0
  0
LINE
  5
139
102
{ACAD_REACTORS
330
59B
102
}
330
1F
100
AcDbEntity
  8
LC-002-002-----0
 62
     7
370
    50
100
AcDbLine
 10
1267.22937
 20
1925.0
 30
0.0
 11
479.82937
 21
1925.0
 31
0.0
  0
ARC
  5
13A
102
{ACAD_REACTORS
330
59B
102
}
330
1F
100
AcDbEntity
  8
LC-002-002-----0
 62
     7
370
    50
100
AcDbCircle
 10
1267.22937
 20
1899.6
 30
0.0
 40
25.40000000000009
100
AcDbArc
 50
0.0
 51
90.0
  0
LINE
  5
13B
102
{ACAD_REACTORS
330
59B
102
}
330
1F
100
AcDbEntity
  8
LC-002-002-----0
 62
     7
370
    50
100
AcDbLine
 10
1292.62937
 20
1391.6
 30
0.0
 11
1292.62937
 21
1899.6
 31
0.0
  0
ARC
  5
13C
102
{ACAD_REACTORS
330
59B
102
}
330
1F
100
AcDbEntity
  8
LC-002-002-----0
 62
     7
370
    50
100
AcDbCircle
 10
1267.22937
 20
1391.6
 30
0.0
 40
25.40000000000009
100
AcDbArc
 50
270.0
 51
0.0
  0
LINE
  5
13D
102
{ACAD_REACTORS
330
59B
102
}
330
1F
100
AcDbEntity
  8
LC-002-002-----0
 62
     7
370
    50
100
AcDbLine
 10
479.82937
 20
1366.2
 30
0.0
 11
1267.22937
 21
1366.2
 31
0.0
  0
ARC
  5
13E
102
{ACAD_REACTORS
330
59B
102
}
330
1F
100
AcDbEntity
  8
LC-002-002-----0
 62
     7
370
    50
100
AcDbCircle
 10
479.82937
 20
1391.6
 30
0.0
 40
25.40000000000009
100
AcDbArc
 50
180.0
 51
270.0
  0
LINE
  5
13F
102
{ACAD_REACTORS
330
59B
102
}
330
1F
100
AcDbEntity
  8
LC-002-002-----0
 62
     7
370
    50
100
AcDbLine
 10
454.42937
 20
1899.6
 30
0.0
 11
454.42937
 21
1391.6
 31
0.0
  0
LINE
  5
140
102
{ACAD_REACTORS
330
59B
102
}
330
1F
100
AcDbEntity
  8
LC-002-002-----0
 62
     7
370
    50
100
AcDbLine
 10
860.62937
 20
1797.0
 30
0.0
 11
860.62937
 21
1420.2
 31
0.0
  0
LINE
  5
141
102
{ACAD_REACTORS
330
59B
102
}
330
1F
100
AcDbEntity
  8
LC-002-002-----0
 62
     7
370
    50
100
AcDbLine
 10
886.42937
 20
1797.0
 30
0.0
 11
886.42937
 21
1420.2
 31
0.0
  0
CIRCLE
  5
142
102
{ACAD_REACTORS
330
59B
102
}
330
1F
100
AcDbEntity
  8
LC-002-002-----0
 62
     7
370
    50
100
AcDbCircle
 10
1072.52937
 20
1705.6
 30
0.0
 40
57.5
  0
CIRCLE
  5
143
102
{ACAD_REACTORS
330
59B
102
}
330
1F
100
AcDbEntity
  8
LC-002-002-----0
 62
     7
370
    50
100
AcDbCircle
 10
1072.52937
 20
1705.6
 30
0.0
 40
46.0
  0
LINE
  5
144
102
{ACAD_REACTORS
330
59E
102
}
330
1F
100
AcDbEntity
  8
LC-002-002-----0
 62
     7
370
    50
100
AcDbLine
 10
468.42937
 20
2568.46
 30
0.0
 11
468.42937
 21
2569.96
 31
0.0
  0
LINE
  5
145
102
{ACAD_REACTORS
330
59E
102
}
330
1F
100
AcDbEntity
  8
LC-002-002-----0
 62
     7
370
    50
100
AcDbLine
 10
1278.62937
 20
2569.96
 30
0.0
 11
1292.62937
 21
2569.96
 31
0.0
  0
LINE
  5
146
102
{ACAD_REACTORS
330
59E
102
}
330
1F
100
AcDbEntity
  8
LC-002-002-----0
 62
     7
370
    50
100
AcDbLine
 10
1278.62937
 20
2568.46
 30
0.0
 11
1278.62937
 21
2569.96
 31
0.0
  0
LINE
  5
147
102
{ACAD_REACTORS
330
59E
102
}
330
1F
100
AcDbEntity
  8
LC-002-002-----0
 62
     7
370
    50
100
AcDbLine
 10
458.718845
 20
2577.96
 30
0.0
 11
483.847714
 21
2577.96
 31
0.0
  0
LINE
  5
148
102
{ACAD_REACTORS
330
59E
102
}
330
1F
100
AcDbEntity
  8
LC-002-002-----0
 62
     7
370
    50
100
AcDbLine
 10
1263.211026
 20
2577.96
 30
0.0
 11
1288.339895
 21
2577.96
 31
0.0
  0
LINE
  5
149
102
{ACAD_REACTORS
330
59E
102
}
330
1F
100
AcDbEntity
  8
LC-002-002-----0
 62
     7
370
    50
100
AcDbLine
 10
454.42937
 20
2569.96
 30
0.0
 11
454.728589
 21
2574.239026
 31
0.0
  0
LINE
  5
14A
102
{ACAD_REACTORS
330
59E
102
}
330
1F
100
AcDbEntity
  8
LC-002-002-----0
 62
     7
370
    50
100
AcDbLine
 10
1292.62937
 20
2569.96
 30
0.0
 11
1292.330152
 21
2574.239026
 31
0.0
  0
LINE
  5
14B
102
{ACAD_REACTORS
330
59E
102
}
330
1F
100
AcDbEntity
  8
LC-002-002-----0
 62
     7
370
    50
100
AcDbLine
 10
858.630053
 20
2555.395779
 30
0.0
 11
841.908603
 21
2364.268733
 31
0.0
  0
LINE
  5
14C
102
{ACAD_REACTORS
330
59E
102
}
330
1F
100
AcDbEntity
  8
LC-002-002-----0
 62
     7
370
    50
100
AcDbLine
 10
883.447714
 20
2559.96
 30
0.0
 11
863.611026
 21
2559.96
 31
0.0
  0
LINE
  5
14D
102
{ACAD_REACTORS
330
59E
102
}
330
1F
100
AcDbEntity
  8
LC-002-002-----0
 62
     7
370
    50
100
AcDbLine
 10
905.150138
 20
2364.268733
 30
0.0
 11
888.428688
 21
2555.395779
 31
0.0
  0
LINE
  5
14E
102
{ACAD_REACTORS
330
59E
102
}
330
1F
100
AcDbEntity
  8
LC-002-002-----0
 62
     7
370
    50
100
AcDbLine
 10
488.828688
 20
2573.395779
 30
0.0
 11
507.124818
 21
2364.27006
 31
0.0
  0
LINE
  5
14F
102
{ACAD_REACTORS
330
59E
102
}
330
1F
100
AcDbEntity
  8
LC-002-002-----0
 62
     7
370
    50
100
AcDbLine
 10
1258.230053
 20
2573.395779
 30
0.0
 11
1239.933923
 21
2364.27006
 31
0.0
  0
LINE
  5
150
102
{ACAD_REACTORS
330
59E
102
}
330
1F
100
AcDbEntity
  8
LC-002-002-----0
 62
     7
370
    50
100
AcDbLine
 10
629.52937
 20
2332.786766
 30
0.0
 11
719.52937
 21
2332.786766
 31
0.0
  0
LINE
  5
151
102
{ACAD_REACTORS
330
59E
102
}
330
1F
100
AcDbEntity
  8
LC-002-002-----0
 62
     7
370
    50
100
AcDbLine
 10
1027.52937
 20
2332.786766
 30
0.0
 11
1117.52937
 21
2332.786766
 31
0.0
  0
LINE
  5
152
102
{ACAD_REACTORS
330
59E
102
}
330
1F
100
AcDbEntity
  8
LC-002-002-----0
 62
     7
370
    50
100
AcDbLine
 10
1237.767666
 20
2577.96
 30
0.0
 11
1072.52937
 21
2577.96
 31
0.0
  0
LINE
  5
153
102
{ACAD_REACTORS
330
59E
102
}
330
1F
100
AcDbEntity
  8
LC-002-002-----0
 62
     7
370
    50
100
AcDbLine
 10
509.291074
 20
2577.96
 30
0.0
 11
488.42937
 21
2577.96
 31
0.0
  0
LINE
  5
154
102
{ACAD_REACTORS
330
59E
102
}
330
1F
100
AcDbEntity
  8
LC-002-002-----0
 62
     7
370
    50
100
AcDbLine
 10
488.42937
 20
2577.96
 30
0.0
 11
483.847714
 21
2577.96
 31
0.0
  0
LINE
  5
155
102
{ACAD_REACTORS
330
59E
102
}
330
1F
100
AcDbEntity
  8
LC-002-002-----0
 62
     7
370
    50
100
AcDbLine
 10
1263.211026
 20
2577.96
 30
0.0
 11
1258.62937
 21
2577.96
 31
0.0
  0
LINE
  5
156
102
{ACAD_REACTORS
330
59E
102
}
330
1F
100
AcDbEntity
  8
LC-002-002-----0
 62
     7
370
    50
100
AcDbLine
 10
1258.62937
 20
2577.96
 30
0.0
 11
1237.767666
 21
2577.96
 31
0.0
  0
LINE
  5
157
102
{ACAD_REACTORS
330
59E
102
}
330
1F
100
AcDbEntity
  8
LC-002-002-----0
 62
     7
370
    50
100
AcDbLine
 10
883.44875
 20
2559.96
 30
0.0
 11
883.447714
 21
2559.96
 31
0.0
  0
LINE
  5
158
102
{ACAD_REACTORS
330
59F
102
}
330
1F
100
AcDbEntity
  8
LC-004-006-MLN-0
 62
     7
370
    25
100
AcDbLine
 10
1612.683258
 20
1705.6
 30
0.0
 11
1632.738127
 21
1705.6
 31
0.0
  0
LINE
  5
159
102
{ACAD_REACTORS
330
59F
102
}
330
1F
100
AcDbEntity
  8
LC-002-002-----0
 62
     7
370
    25
100
AcDbLine
 10
1629.738127
 20
1763.1
 30
0.0
 11
1629.738127
 21
1648.1
 31
0.0
  0
ARC
  5
15A
102
{ACAD_REACTORS
330
59E
102
}
330
1F
100
AcDbEntity
  8
LC-002-002-----0
 62
     7
370
    50
100
AcDbCircle
 10
532.029685
 20
2366.448953
 30
0.0
 40
24.99999999999989
100
AcDbArc
 50
185.000727
 51
266.998924
  0
ARC
  5
15B
102
{ACAD_REACTORS
330
59E
102
}
330
1F
100
AcDbEntity
  8
LC-002-002-----0
 62
     7
370
    50
100
AcDbCircle
 10
817.003735
 20
2366.447626
 30
0.0
 40
25.00000000000043
100
AcDbArc
 50
273.001709
 51
354.99933
  0
ARC
  5
15C
102
{ACAD_REACTORS
330
59E
102
}
330
1F
100
AcDbEntity
  8
LC-002-002-----0
 62
     7
370
    50
100
AcDbCircle
 10
930.055005
 20
2366.447626
 30
0.0
 40
25.00000000000015
100
AcDbArc
 50
185.000727
 51
266.998922
  0
ARC
  5
15D
102
{ACAD_REACTORS
330
59E
102
}
330
1F
100
AcDbEntity
  8
LC-002-002-----0
 62
     7
370
    50
100
AcDbCircle
 10
1215.029056
 20
2366.448953
 30
0.0
 40
25.00000000000015
100
AcDbArc
 50
273.001709
 51
354.99933
  0
LINE
  5
15E
102
{ACAD_REACTORS
330
59E
102
}
330
1F
100
AcDbEntity
  8
LC-002-002-----0
 62
     7
370
    50
100
AcDbLine
 10
468.42937
 20
2568.46
 30
0.0
 11
476.556665
 21
2568.46
 31
0.0
  0
LINE
  5
15F
102
{ACAD_REACTORS
330
59E
102
}
330
1F
100
AcDbEntity
  8
LC-002-002-----0
 62
     7
370
    50
100
AcDbLine
 10
1270.502076
 20
2568.46
 30
0.0
 11
1278.62937
 21
2568.46
 31
0.0
  0
LINE
  5
160
102
{ACAD_REACTORS
330
59E
102
}
330
1F
100
AcDbEntity
  8
LC-002-002-----0
 62
     7
370
    50
100
AcDbLine
 10
612.803511
 20
2322.905131
 30
0.0
 11
629.52937
 21
2322.905131
 31
0.0
  0
LINE
  5
161
102
{ACAD_REACTORS
330
59E
102
}
330
1F
100
AcDbEntity
  8
LC-002-002-----0
 62
     7
370
    50
100
AcDbLine
 10
870.766698
 20
2549.96
 30
0.0
 11
876.292042
 21
2549.96
 31
0.0
  0
LINE
  5
162
102
{ACAD_REACTORS
330
59E
102
}
330
1F
100
AcDbEntity
  8
LC-002-002-----0
 62
     7
370
    50
100
AcDbLine
 10
1265.421483
 20
2563.804494
 30
0.0
 11
1247.815468
 21
2362.566829
 31
0.0
  0
LINE
  5
163
102
{ACAD_REACTORS
330
59E
102
}
330
1F
100
AcDbEntity
  8
LC-002-002-----0
 62
     7
370
    50
100
AcDbLine
 10
481.637258
 20
2563.804494
 30
0.0
 11
499.243272
 21
2362.566829
 31
0.0
  0
LINE
  5
164
102
{ACAD_REACTORS
330
59E
102
}
330
1F
100
AcDbEntity
  8
LC-002-002-----0
 62
     7
370
    50
100
AcDbLine
 10
897.268592
 20
2362.565502
 30
0.0
 11
881.273016
 21
2545.395779
 31
0.0
  0
LINE
  5
165
102
{ACAD_REACTORS
330
59E
102
}
330
1F
100
AcDbEntity
  8
LC-002-002-----0
 62
     7
370
    50
100
AcDbLine
 10
865.785725
 20
2545.395779
 30
0.0
 11
849.790148
 21
2362.565502
 31
0.0
  0
LINE
  5
166
102
{ACAD_REACTORS
330
59E
102
}
330
1F
100
AcDbEntity
  8
LC-002-002-----0
 62
     7
370
    50
100
AcDbLine
 10
1010.803511
 20
2322.905131
 30
0.0
 11
1134.25523
 21
2322.905131
 31
0.0
  0
ARC
  5
167
102
{ACAD_REACTORS
330
59E
102
}
330
1F
100
AcDbEntity
  8
LC-002-002-----0
 62
     7
370
    50
100
AcDbCircle
 10
816.915723
 20
2365.441642
 30
0.0
 40
33.00000000000026
100
AcDbArc
 50
273.000707
 51
354.999511
  0
ARC
  5
168
102
{ACAD_REACTORS
330
59E
102
}
330
1F
100
AcDbEntity
  8
LC-002-002-----0
 62
     7
370
    50
100
AcDbCircle
 10
532.117697
 20
2365.442969
 30
0.0
 40
33.00000000000017
100
AcDbArc
 50
185.000506
 51
266.998544
  0
ARC
  5
169
102
{ACAD_REACTORS
330
59E
102
}
330
1F
100
AcDbEntity
  8
LC-002-002-----0
 62
     7
370
    50
100
AcDbCircle
 10
930.143017
 20
2365.441642
 30
0.0
 40
32.99999999999985
100
AcDbArc
 50
185.000453
 51
266.999263
  0
ARC
  5
16A
102
{ACAD_REACTORS
330
59E
102
}
330
1F
100
AcDbEntity
  8
LC-002-002-----0
 62
     7
370
    50
100
AcDbCircle
 10
1214.941043
 20
2365.442969
 30
0.0
 40
32.99999999999995
100
AcDbArc
 50
273.001455
 51
354.999531
  0
ARC
  5
16B
102
{ACAD_REACTORS
330
59E
102
}
330
1F
100
AcDbEntity
  8
LC-002-002-----0
 62
     7
370
    50
100
AcDbCircle
 10
743.991653
 20
2322.566331
 30
0.0
 40
5.999999999999874
100
AcDbArc
 50
93.0
 51
99.2
  0
ARC
  5
16C
102
{ACAD_REACTORS
330
59E
102
}
330
1F
100
AcDbEntity
  8
LC-002-002-----0
 62
     7
370
    50
100
AcDbCircle
 10
743.991653
 20
2322.566331
 30
0.0
 40
6.00000000000029
100
AcDbArc
 50
99.2
 51
102.520976
  0
ARC
  5
16D
102
{ACAD_REACTORS
330
59E
102
}
330
1F
100
AcDbEntity
  8
LC-002-002-----0
 62
     7
370
    50
100
AcDbCircle
 10
743.991653
 20
2322.566331
 30
0.0
 40
6.00000000000033
100
AcDbArc
 50
102.520976
 51
105.4
  0
ARC
  5
16E
102
{ACAD_REACTORS
330
59E
102
}
330
1F
100
AcDbEntity
  8
LC-002-002-----0
 62
     7
370
    50
100
AcDbCircle
 10
743.991653
 20
2322.566331
 30
0.0
 40
6.000000000000225
100
AcDbArc
 50
105.4
 51
108.757703
  0
ARC
  5
16F
102
{ACAD_REACTORS
330
59E
102
}
330
1F
100
AcDbEntity
  8
LC-002-002-----0
 62
     7
370
    50
100
AcDbCircle
 10
743.991653
 20
2322.566331
 30
0.0
 40
6.000000000000239
100
AcDbArc
 50
108.757703
 51
111.6
  0
ARC
  5
170
102
{ACAD_REACTORS
330
59E
102
}
330
1F
100
AcDbEntity
  8
LC-002-002-----0
 62
     7
370
    50
100
AcDbCircle
 10
743.991653
 20
2322.566331
 30
0.0
 40
6.000000000000089
100
AcDbArc
 50
111.6
 51
115.009116
  0
ARC
  5
171
102
{ACAD_REACTORS
330
59E
102
}
330
1F
100
AcDbEntity
  8
LC-002-002-----0
 62
     7
370
    50
100
AcDbCircle
 10
743.991653
 20
2322.566331
 30
0.0
 40
6.000000000000333
100
AcDbArc
 50
115.009116
 51
117.8
  0
ARC
  5
172
102
{ACAD_REACTORS
330
59E
102
}
330
1F
100
AcDbEntity
  8
LC-002-002-----0
 62
     7
370
    50
100
AcDbCircle
 10
743.991653
 20
2322.566331
 30
0.0
 40
5.999999999999843
100
AcDbArc
 50
117.8
 51
121.286415
  0
ARC
  5
173
102
{ACAD_REACTORS
330
59E
102
}
330
1F
100
AcDbEntity
  8
LC-002-002-----0
 62
     7
370
    50
100
AcDbCircle
 10
743.991653
 20
2322.566331
 30
0.0
 40
6.000000000000004
100
AcDbArc
 50
121.286415
 51
124.0
  0
ARC
  5
174
102
{ACAD_REACTORS
330
59E
102
}
330
1F
100
AcDbEntity
  8
LC-002-002-----0
 62
     7
370
    50
100
AcDbCircle
 10
743.991653
 20
2322.566331
 30
0.0
 40
6.0000000000001
100
AcDbArc
 50
124.0
 51
155.0
  0
ARC
  5
175
102
{ACAD_REACTORS
330
59E
102
}
330
1F
100
AcDbEntity
  8
LC-002-002-----0
 62
     7
370
    50
100
AcDbCircle
 10
1134.25523
 20
2324.905131
 30
0.0
 40
2.0
100
AcDbArc
 50
270.0
 51
335.0
  0
ARC
  5
176
102
{ACAD_REACTORS
330
59E
102
}
330
1F
100
AcDbEntity
  8
LC-002-002-----0
 62
     7
370
    50
100
AcDbCircle
 10
736.25523
 20
2324.905131
 30
0.0
 40
2.0
100
AcDbArc
 50
270.0
 51
335.0
  0
LINE
  5
177
102
{ACAD_REACTORS
330
59E
102
}
330
1F
100
AcDbEntity
  8
LC-002-002-----0
 62
     7
370
    50
100
AcDbLine
 10
1136.067845
 20
2324.059895
 30
0.0
 11
1136.553806
 21
2325.102041
 31
0.0
  0
LINE
  5
178
102
{ACAD_REACTORS
330
59E
102
}
330
1F
100
AcDbEntity
  8
LC-002-002-----0
 62
     7
370
    50
100
AcDbLine
 10
738.067845
 20
2324.059895
 30
0.0
 11
738.553806
 21
2325.102041
 31
0.0
  0
LINE
  5
179
102
{ACAD_REACTORS
330
59E
102
}
330
1F
100
AcDbEntity
  8
LC-002-002-----0
 62
     7
370
    50
100
AcDbLine
 10
629.52937
 20
2322.905131
 30
0.0
 11
719.52937
 21
2322.905131
 31
0.0
  0
LINE
  5
17A
102
{ACAD_REACTORS
330
59E
102
}
330
1F
100
AcDbEntity
  8
LC-002-002-----0
 62
     7
370
    50
100
AcDbLine
 10
509.291074
 20
2577.96
 30
0.0
 11
483.847714
 21
2577.96
 31
0.0
  0
LINE
  5
17B
102
{ACAD_REACTORS
330
59E
102
}
330
1F
100
AcDbEntity
  8
LC-002-002-----0
 62
     7
370
    50
100
AcDbLine
 10
1131.071085
 20
2337.014594
 30
0.0
 11
1216.337454
 21
2341.483215
 31
0.0
  0
ARC
  5
17C
102
{ACAD_REACTORS
330
59E
102
}
330
1F
100
AcDbEntity
  8
LC-002-002-----0
 62
     7
370
    50
100
AcDbCircle
 10
1131.133888
 20
2335.816239
 30
0.0
 40
1.200000000000001
100
AcDbArc
 50
93.0
 51
175.0
  0
LINE
  5
17D
102
{ACAD_REACTORS
330
59E
102
}
330
1F
100
AcDbEntity
  8
LC-002-002-----0
 62
     7
370
    25
100
AcDbLine
 10
1015.02937
 20
2336.96
 30
0.0
 11
1130.02937
 21
2336.96
 31
0.0
  0
LINE
  5
17E
102
{ACAD_REACTORS
330
59E
102
}
330
1F
100
AcDbEntity
  8
LC-002-002-----0
 62
     7
370
    50
100
AcDbLine
 10
1027.52937
 20
2332.786766
 30
0.0
 11
1015.960017
 21
2334.826755
 31
0.0
  0
LINE
  5
17F
102
{ACAD_REACTORS
330
59E
102
}
330
1F
100
AcDbEntity
  8
LC-002-002-----0
 62
     7
370
    50
100
AcDbLine
 10
1015.137471
 20
2335.724407
 30
0.0
 11
1015.120286
 21
2335.920825
 31
0.0
  0
ARC
  5
180
102
{ACAD_REACTORS
330
59E
102
}
330
1F
100
AcDbEntity
  8
LC-002-002-----0
 62
     7
370
    50
100
AcDbCircle
 10
1013.924853
 20
2335.816239
 30
0.0
 40
1.199999999999819
100
AcDbArc
 50
5.0
 51
87.0
  0
LINE
  5
181
102
{ACAD_REACTORS
330
59E
102
}
330
1F
100
AcDbEntity
  8
LC-002-002-----0
 62
     7
370
    50
100
AcDbLine
 10
1013.987656
 20
2337.014594
 30
0.0
 11
928.746606
 21
2341.481888
 31
0.0
  0
ARC
  5
182
102
{ACAD_REACTORS
330
59E
102
}
330
1F
100
AcDbEntity
  8
LC-002-002-----0
 62
     7
370
    50
100
AcDbCircle
 10
883.447714
 20
2554.96
 30
0.0
 40
5.000000000000107
100
AcDbArc
 50
5.0
 51
90.0
  0
ARC
  5
183
102
{ACAD_REACTORS
330
59E
102
}
330
1F
100
AcDbEntity
  8
LC-002-002-----0
 62
     7
370
    50
100
AcDbCircle
 10
863.611026
 20
2554.96
 30
0.0
 40
5.0
100
AcDbArc
 50
90.0
 51
175.0
  0
LINE
  5
184
102
{ACAD_REACTORS
330
59E
102
}
330
1F
100
AcDbEntity
  8
LC-002-002-----0
 62
     7
370
    50
100
AcDbLine
 10
733.071085
 20
2337.014594
 30
0.0
 11
818.312134
 21
2341.481888
 31
0.0
  0
LINE
  5
185
102
{ACAD_REACTORS
330
59E
102
}
330
1F
100
AcDbEntity
  8
LC-002-002-----0
 62
     7
370
    50
100
AcDbLine
 10
629.52937
 20
2332.786766
 30
0.0
 11
617.960017
 21
2334.826755
 31
0.0
  0
LINE
  5
186
102
{ACAD_REACTORS
330
59E
102
}
330
1F
100
AcDbEntity
  8
LC-002-002-----0
 62
     7
370
    50
100
AcDbLine
 10
617.137471
 20
2335.724407
 30
0.0
 11
617.120286
 21
2335.920825
 31
0.0
  0
ARC
  5
187
102
{ACAD_REACTORS
330
59E
102
}
330
1F
100
AcDbEntity
  8
LC-002-002-----0
 62
     7
370
    50
100
AcDbCircle
 10
615.924853
 20
2335.816239
 30
0.0
 40
1.199999999999819
100
AcDbArc
 50
5.0
 51
87.0
  0
LINE
  5
188
102
{ACAD_REACTORS
330
59E
102
}
330
1F
100
AcDbEntity
  8
LC-002-002-----0
 62
     7
370
    50
100
AcDbLine
 10
615.987656
 20
2337.014594
 30
0.0
 11
530.721286
 21
2341.483215
 31
0.0
  0
ARC
  5
189
102
{ACAD_REACTORS
330
59E
102
}
330
1F
100
AcDbEntity
  8
LC-002-002-----0
 62
     7
370
    50
100
AcDbCircle
 10
483.847714
 20
2572.96
 30
0.0
 40
5.000000000000107
100
AcDbArc
 50
5.0
 51
90.0
  0
ARC
  5
18A
102
{ACAD_REACTORS
330
59E
102
}
330
1F
100
AcDbEntity
  8
LC-002-002-----0
 62
     7
370
    50
100
AcDbCircle
 10
458.718845
 20
2573.96
 30
0.0
 40
4.0
100
AcDbArc
 50
90.0
 51
176.0
  0
ARC
  5
18B
102
{ACAD_REACTORS
330
59E
102
}
330
1F
100
AcDbEntity
  8
LC-002-002-----0
 62
     7
370
    50
100
AcDbCircle
 10
476.556665
 20
2563.36
 30
0.0
 40
5.100000000000057
100
AcDbArc
 50
5.0
 51
90.0
  0
LINE
  5
18C
102
{ACAD_REACTORS
330
59E
102
}
330
1F
100
AcDbEntity
  8
LC-002-002-----0
 62
     7
370
    50
100
AcDbLine
 10
605.381103
 20
2328.558109
 30
0.0
 11
530.390611
 21
2332.488194
 31
0.0
  0
ARC
  5
18D
102
{ACAD_REACTORS
330
59E
102
}
330
1F
100
AcDbEntity
  8
LC-002-002-----0
 62
     7
370
    50
100
AcDbCircle
 10
605.067088
 20
2322.566331
 30
0.0
 40
6.000000000000177
100
AcDbArc
 50
25.0
 51
87.0
  0
LINE
  5
18E
102
{ACAD_REACTORS
330
59E
102
}
330
1F
100
AcDbEntity
  8
LC-002-002-----0
 62
     7
370
    50
100
AcDbLine
 10
610.990895
 20
2324.059895
 30
0.0
 11
610.504934
 21
2325.102041
 31
0.0
  0
ARC
  5
18F
102
{ACAD_REACTORS
330
59E
102
}
330
1F
100
AcDbEntity
  8
LC-002-002-----0
 62
     7
370
    50
100
AcDbCircle
 10
612.803511
 20
2324.905131
 30
0.0
 40
1.999999999999703
100
AcDbArc
 50
205.0
 51
270.0
  0
ARC
  5
190
102
{ACAD_REACTORS
330
59E
102
}
330
1F
100
AcDbEntity
  8
LC-002-002-----0
 62
     7
370
    50
100
AcDbCircle
 10
736.25523
 20
2324.905131
 30
0.0
 40
2.0
100
AcDbArc
 50
270.0
 51
335.0
  0
LINE
  5
191
102
{ACAD_REACTORS
330
59E
102
}
330
1F
100
AcDbEntity
  8
LC-002-002-----0
 62
     7
370
    50
100
AcDbLine
 10
738.067845
 20
2324.059895
 30
0.0
 11
738.553806
 21
2325.102041
 31
0.0
  0
ARC
  5
192
102
{ACAD_REACTORS
330
59E
102
}
330
1F
100
AcDbEntity
  8
LC-002-002-----0
 62
     7
370
    50
100
AcDbCircle
 10
743.991653
 20
2322.566331
 30
0.0
 40
5.999999999999874
100
AcDbArc
 50
93.0
 51
99.2
  0
ARC
  5
193
102
{ACAD_REACTORS
330
59E
102
}
330
1F
100
AcDbEntity
  8
LC-002-002-----0
 62
     7
370
    50
100
AcDbCircle
 10
743.991653
 20
2322.566331
 30
0.0
 40
6.000000000000081
100
AcDbArc
 50
99.2
 51
102.521191
  0
ARC
  5
194
102
{ACAD_REACTORS
330
59E
102
}
330
1F
100
AcDbEntity
  8
LC-002-002-----0
 62
     7
370
    50
100
AcDbCircle
 10
743.991653
 20
2322.566331
 30
0.0
 40
6.00000000000009
100
AcDbArc
 50
102.521191
 51
105.4
  0
ARC
  5
195
102
{ACAD_REACTORS
330
59E
102
}
330
1F
100
AcDbEntity
  8
LC-002-002-----0
 62
     7
370
    50
100
AcDbCircle
 10
743.991653
 20
2322.566331
 30
0.0
 40
5.999999999999999
100
AcDbArc
 50
105.4
 51
108.757953
  0
ARC
  5
196
102
{ACAD_REACTORS
330
59E
102
}
330
1F
100
AcDbEntity
  8
LC-002-002-----0
 62
     7
370
    50
100
AcDbCircle
 10
743.991653
 20
2322.566331
 30
0.0
 40
6.00000000000031
100
AcDbArc
 50
108.757953
 51
111.6
  0
ARC
  5
197
102
{ACAD_REACTORS
330
59E
102
}
330
1F
100
AcDbEntity
  8
LC-002-002-----0
 62
     7
370
    50
100
AcDbCircle
 10
743.991653
 20
2322.566331
 30
0.0
 40
6.000000000000235
100
AcDbArc
 50
111.6
 51
115.009415
  0
ARC
  5
198
102
{ACAD_REACTORS
330
59E
102
}
330
1F
100
AcDbEntity
  8
LC-002-002-----0
 62
     7
370
    50
100
AcDbCircle
 10
743.991653
 20
2322.566331
 30
0.0
 40
6.000000000000106
100
AcDbArc
 50
115.009415
 51
117.8
  0
ARC
  5
199
102
{ACAD_REACTORS
330
59E
102
}
330
1F
100
AcDbEntity
  8
LC-002-002-----0
 62
     7
370
    50
100
AcDbCircle
 10
743.991653
 20
2322.566331
 30
0.0
 40
6.00000000000018
100
AcDbArc
 50
117.8
 51
121.286786
  0
ARC
  5
19A
102
{ACAD_REACTORS
330
59E
102
}
330
1F
100
AcDbEntity
  8
LC-002-002-----0
 62
     7
370
    50
100
AcDbCircle
 10
743.991653
 20
2322.566331
 30
0.0
 40
6.00000000000006
100
AcDbArc
 50
121.286786
 51
124.0
  0
ARC
  5
19B
102
{ACAD_REACTORS
330
59E
102
}
330
1F
100
AcDbEntity
  8
LC-002-002-----0
 62
     7
370
    50
100
AcDbCircle
 10
743.991653
 20
2322.566331
 30
0.0
 40
6.000000000000308
100
AcDbArc
 50
124.0
 51
155.0
  0
LINE
  5
19C
102
{ACAD_REACTORS
330
59E
102
}
330
1F
100
AcDbEntity
  8
LC-002-002-----0
 62
     7
370
    50
100
AcDbLine
 10
743.677637
 20
2328.558109
 30
0.0
 11
818.64281
 21
2332.486867
 31
0.0
  0
ARC
  5
19D
102
{ACAD_REACTORS
330
59E
102
}
330
1F
100
AcDbEntity
  8
LC-002-002-----0
 62
     7
370
    50
100
AcDbCircle
 10
870.766698
 20
2544.96
 30
0.0
 40
5.0
100
AcDbArc
 50
90.0
 51
175.0
  0
ARC
  5
19E
102
{ACAD_REACTORS
330
59E
102
}
330
1F
100
AcDbEntity
  8
LC-002-002-----0
 62
     7
370
    50
100
AcDbCircle
 10
876.292042
 20
2544.96
 30
0.0
 40
5.000000000000107
100
AcDbArc
 50
5.0
 51
90.0
  0
LINE
  5
19F
102
{ACAD_REACTORS
330
59E
102
}
330
1F
100
AcDbEntity
  8
LC-002-002-----0
 62
     7
370
    50
100
AcDbLine
 10
1003.381103
 20
2328.558109
 30
0.0
 11
928.415931
 21
2332.486867
 31
0.0
  0
ARC
  5
1A0
102
{ACAD_REACTORS
330
59E
102
}
330
1F
100
AcDbEntity
  8
LC-002-002-----0
 62
     7
370
    50
100
AcDbCircle
 10
1003.067088
 20
2322.566331
 30
0.0
 40
6.000000000000177
100
AcDbArc
 50
25.0
 51
87.0
  0
LINE
  5
1A1
102
{ACAD_REACTORS
330
59E
102
}
330
1F
100
AcDbEntity
  8
LC-002-002-----0
 62
     7
370
    50
100
AcDbLine
 10
1008.990895
 20
2324.059895
 30
0.0
 11
1008.504934
 21
2325.102041
 31
0.0
  0
ARC
  5
1A2
102
{ACAD_REACTORS
330
59E
102
}
330
1F
100
AcDbEntity
  8
LC-002-002-----0
 62
     7
370
    50
100
AcDbCircle
 10
1010.803511
 20
2324.905131
 30
0.0
 40
1.999999999999703
100
AcDbArc
 50
205.0
 51
270.0
  0
ARC
  5
1A3
102
{ACAD_REACTORS
330
59E
102
}
330
1F
100
AcDbEntity
  8
LC-002-002-----0
 62
     7
370
    50
100
AcDbCircle
 10
1134.25523
 20
2324.905131
 30
0.0
 40
2.0
100
AcDbArc
 50
270.0
 51
335.0
  0
LINE
  5
1A4
102
{ACAD_REACTORS
330
59E
102
}
330
1F
100
AcDbEntity
  8
LC-002-002-----0
 62
     7
370
    50
100
AcDbLine
 10
1136.067845
 20
2324.059895
 30
0.0
 11
1136.553806
 21
2325.102041
 31
0.0
  0
ARC
  5
1A5
102
{ACAD_REACTORS
330
59E
102
}
330
1F
100
AcDbEntity
  8
LC-002-002-----0
 62
     7
370
    50
100
AcDbCircle
 10
1141.991653
 20
2322.566331
 30
0.0
 40
5.999999999999874
100
AcDbArc
 50
93.0
 51
155.0
  0
LINE
  5
1A6
102
{ACAD_REACTORS
330
59E
102
}
330
1F
100
AcDbEntity
  8
LC-002-002-----0
 62
     7
370
    50
100
AcDbLine
 10
1141.677637
 20
2328.558109
 30
0.0
 11
1216.66813
 21
2332.488194
 31
0.0
  0
ARC
  5
1A7
102
{ACAD_REACTORS
330
59E
102
}
330
1F
100
AcDbEntity
  8
LC-002-002-----0
 62
     7
370
    50
100
AcDbCircle
 10
1270.502076
 20
2563.36
 30
0.0
 40
5.099999999999909
100
AcDbArc
 50
90.0
 51
175.0
  0
ARC
  5
1A8
102
{ACAD_REACTORS
330
59E
102
}
330
1F
100
AcDbEntity
  8
LC-002-002-----0
 62
     7
370
    50
100
AcDbCircle
 10
1288.339895
 20
2573.96
 30
0.0
 40
4.000000000000019
100
AcDbArc
 50
4.0
 51
90.0
  0
ARC
  5
1A9
102
{ACAD_REACTORS
330
59E
102
}
330
1F
100
AcDbEntity
  8
LC-002-002-----0
 62
     7
370
    50
100
AcDbCircle
 10
1263.211026
 20
2572.96
 30
0.0
 40
5.0
100
AcDbArc
 50
90.0
 51
175.0
  0
LINE
  5
1AA
102
{ACAD_REACTORS
330
59E
102
}
330
1F
100
AcDbEntity
  8
LC-002-002-----0
 62
     7
370
    50
100
AcDbLine
 10
883.235892
 20
2522.96
 30
0.0
 11
863.822848
 21
2522.96
 31
0.0
  0
ARC
  5
1AB
102
{ACAD_REACTORS
330
59E
102
}
330
1F
100
AcDbEntity
  8
LC-002-002-----0
 62
     7
370
    50
100
AcDbCircle
 10
733.133888
 20
2335.816239
 30
0.0
 40
1.200000000000001
100
AcDbArc
 50
93.0
 51
175.0
  0
LINE
  5
1AC
102
{ACAD_REACTORS
330
59E
102
}
330
1F
100
AcDbEntity
  8
LC-002-002-----0
 62
     7
370
    50
100
AcDbLine
 10
731.92127
 20
2335.724407
 30
0.0
 11
731.938454
 21
2335.920825
 31
0.0
  0
ARC
  5
1AD
102
{ACAD_REACTORS
330
59E
102
}
330
1F
100
AcDbEntity
  8
LC-002-002-----0
 62
     7
370
    50
100
AcDbCircle
 10
730.925075
 20
2335.811563
 30
0.0
 40
1.000000000000236
100
AcDbArc
 50
280.0
 51
355.0
  0
LINE
  5
1AE
102
{ACAD_REACTORS
330
59E
102
}
330
1F
100
AcDbEntity
  8
LC-002-002-----0
 62
     7
370
    50
100
AcDbLine
 10
719.52937
 20
2332.786766
 30
0.0
 11
731.098723
 21
2334.826755
 31
0.0
  0
ARC
  5
1AF
102
{ACAD_REACTORS
330
59E
102
}
330
1F
100
AcDbEntity
  8
LC-002-002-----0
 62
     7
370
    50
100
AcDbCircle
 10
618.133665
 20
2335.811563
 30
0.0
 40
0.9999999999997913
100
AcDbArc
 50
185.0
 51
260.0
  0
LINE
  5
1B0
102
{ACAD_REACTORS
330
59E
102
}
330
1F
100
AcDbEntity
  8
LC-002-002-----0
 62
     7
370
    50
100
AcDbLine
 10
719.52937
 20
2322.905131
 30
0.0
 11
719.52937
 21
2332.786766
 31
0.0
  0
ARC
  5
1B1
102
{ACAD_REACTORS
330
59E
102
}
330
1F
100
AcDbEntity
  8
LC-002-002-----0
 62
     7
370
    50
100
AcDbCircle
 10
1016.133665
 20
2335.811563
 30
0.0
 40
1.000000000000086
100
AcDbArc
 50
185.0
 51
260.0
  0
LINE
  5
1B2
102
{ACAD_REACTORS
330
59E
102
}
330
1F
100
AcDbEntity
  8
LC-002-002-----0
 62
     7
370
    50
100
AcDbLine
 10
1129.92127
 20
2335.724407
 30
0.0
 11
1129.938454
 21
2335.920825
 31
0.0
  0
ARC
  5
1B3
102
{ACAD_REACTORS
330
59E
102
}
330
1F
100
AcDbEntity
  8
LC-002-002-----0
 62
     7
370
    50
100
AcDbCircle
 10
1128.925075
 20
2335.811563
 30
0.0
 40
1.000000000000236
100
AcDbArc
 50
280.0
 51
355.0
  0
LINE
  5
1B4
102
{ACAD_REACTORS
330
59E
102
}
330
1F
100
AcDbEntity
  8
LC-002-002-----0
 62
     7
370
    50
100
AcDbLine
 10
1117.52937
 20
2332.786766
 30
0.0
 11
1129.098723
 21
2334.826755
 31
0.0
  0
LINE
  5
1B5
102
{ACAD_REACTORS
330
59E
102
}
330
1F
100
AcDbEntity
  8
LC-002-002-----0
 62
     7
370
    50
100
AcDbLine
 10
1258.62937
 20
2577.96
 30
0.0
 11
1252.433741
 21
2577.96
 31
0.0
  0
LINE
  5
1B6
102
{ACAD_REACTORS
330
59E
102
}
330
1F
100
AcDbEntity
  8
LC-002-002-----0
 62
     7
370
    50
100
AcDbLine
 10
1252.433741
 20
2577.96
 30
0.0
 11
494.624999
 21
2577.96
 31
0.0
  0
LINE
  5
1B7
102
{ACAD_REACTORS
330
59E
102
}
330
1F
100
AcDbEntity
  8
LC-002-002-----0
 62
     7
370
    50
100
AcDbLine
 10
494.624999
 20
2577.96
 30
0.0
 11
488.42937
 21
2577.96
 31
0.0
  0
LINE
  5
1B8
102
{ACAD_REACTORS
330
59E
102
}
330
1F
100
AcDbEntity
  8
LC-002-002-----0
 62
     7
370
    50
100
AcDbLine
 10
454.42937
 20
2569.96
 30
0.0
 11
468.42937
 21
2569.96
 31
0.0
  0
LINE
  5
1B9
102
{ACAD_REACTORS
330
59F
102
}
330
1F
100
AcDbEntity
  8
LC-002-002-----0
 62
     7
370
    50
100
AcDbLine
 10
1862.738127
 20
1366.2
 30
0.0
 11
1862.738127
 21
1380.2
 31
0.0
  0
LINE
  5
1BA
102
{ACAD_REACTORS
330
59F
102
}
330
1F
100
AcDbEntity
  8
LC-002-002-----0
 62
     7
370
    50
100
AcDbLine
 10
1862.738127
 20
1911.0
 30
0.0
 11
1862.738127
 21
1925.0
 31
0.0
  0
LINE
  5
1BB
102
{ACAD_REACTORS
330
59F
102
}
330
1F
100
AcDbEntity
  8
LC-002-002-----0
 62
     7
370
    50
100
AcDbLine
 10
1862.738127
 20
1911.0
 30
0.0
 11
1860.97658
 21
1911.0
 31
0.0
  0
LINE
  5
1BC
102
{ACAD_REACTORS
330
59F
102
}
330
1F
100
AcDbEntity
  8
LC-002-002-----0
 62
     7
370
    50
100
AcDbLine
 10
1861.238127
 20
1887.454412
 30
0.0
 11
1861.238127
 21
1828.872705
 31
0.0
  0
LINE
  5
1BD
102
{ACAD_REACTORS
330
59F
102
}
330
1F
100
AcDbEntity
  8
LC-002-002-----0
 62
     7
370
    50
100
AcDbLine
 10
1862.738127
 20
1380.2
 30
0.0
 11
1860.97658
 21
1380.2
 31
0.0
  0
LINE
  5
1BE
102
{ACAD_REACTORS
330
59F
102
}
330
1F
100
AcDbEntity
  8
LC-002-002-----0
 62
     7
370
    50
100
AcDbLine
 10
1870.738127
 20
1370.489475
 30
0.0
 11
1870.738127
 21
1395.618344
 31
0.0
  0
LINE
  5
1BF
102
{ACAD_REACTORS
330
59F
102
}
330
1F
100
AcDbEntity
  8
LC-002-002-----0
 62
     7
370
    50
100
AcDbLine
 10
1870.738127
 20
1821.581656
 30
0.0
 11
1870.738127
 21
1920.710525
 31
0.0
  0
LINE
  5
1C0
102
{ACAD_REACTORS
330
59F
102
}
330
1F
100
AcDbEntity
  8
LC-002-002-----0
 62
     7
370
    50
100
AcDbLine
 10
1862.738127
 20
1366.2
 30
0.0
 11
1867.017153
 21
1366.499219
 31
0.0
  0
LINE
  5
1C1
102
{ACAD_REACTORS
330
59F
102
}
330
1F
100
AcDbEntity
  8
LC-002-002-----0
 62
     7
370
    50
100
AcDbLine
 10
1862.738127
 20
1925.0
 30
0.0
 11
1867.017153
 21
1924.700781
 31
0.0
  0
LINE
  5
1C2
102
{ACAD_REACTORS
330
59F
102
}
330
1F
100
AcDbEntity
  8
LC-002-002-----0
 62
     7
370
    50
100
AcDbLine
 10
1866.173906
 20
1400.599318
 30
0.0
 11
1663.329234
 21
1418.345927
 31
0.0
  0
LINE
  5
1C3
102
{ACAD_REACTORS
330
59F
102
}
330
1F
100
AcDbEntity
  8
LC-002-002-----0
 62
     7
370
    50
100
AcDbLine
 10
1866.173906
 20
1816.600682
 30
0.0
 11
1653.115293
 21
1797.960469
 31
0.0
  0
LINE
  5
1C4
102
{ACAD_REACTORS
330
59F
102
}
330
1F
100
AcDbEntity
  8
LC-002-002-----0
 62
     7
370
    50
100
AcDbLine
 10
1624.683258
 20
1666.037443
 30
0.0
 11
1624.683258
 21
1705.6
 31
0.0
  0
LINE
  5
1C5
102
{ACAD_REACTORS
330
59F
102
}
330
1F
100
AcDbEntity
  8
LC-002-002-----0
 62
     7
370
    50
100
AcDbLine
 10
1624.683258
 20
1705.6
 30
0.0
 11
1624.683258
 21
1745.162557
 31
0.0
  0
LINE
  5
1C6
102
{ACAD_REACTORS
330
59F
102
}
330
1F
100
AcDbEntity
  8
LC-002-002-----0
 62
     7
370
    50
100
AcDbLine
 10
1870.738127
 20
1821.581656
 30
0.0
 11
1870.738127
 21
1817.0
 31
0.0
  0
LINE
  5
1C7
102
{ACAD_REACTORS
330
59F
102
}
330
1F
100
AcDbEntity
  8
LC-002-002-----0
 62
     7
370
    50
100
AcDbLine
 10
1870.738127
 20
1817.0
 30
0.0
 11
1870.738127
 21
1796.138296
 31
0.0
  0
LINE
  5
1C8
102
{ACAD_REACTORS
330
59F
102
}
330
1F
100
AcDbEntity
  8
LC-002-002-----0
 62
     7
370
    50
100
AcDbLine
 10
1870.738127
 20
1796.138296
 30
0.0
 11
1870.738127
 21
1421.079455
 31
0.0
  0
LINE
  5
1C9
102
{ACAD_REACTORS
330
59F
102
}
330
1F
100
AcDbEntity
  8
LC-002-002-----0
 62
     7
370
    50
100
AcDbLine
 10
1870.738127
 20
1421.079455
 30
0.0
 11
1870.738127
 21
1400.2
 31
0.0
  0
LINE
  5
1CA
102
{ACAD_REACTORS
330
59F
102
}
330
1F
100
AcDbEntity
  8
LC-002-002-----0
 62
     7
370
    50
100
AcDbLine
 10
1870.738127
 20
1400.2
 30
0.0
 11
1870.738127
 21
1395.618344
 31
0.0
  0
ARC
  5
1CB
102
{ACAD_REACTORS
330
59F
102
}
330
1F
100
AcDbEntity
  8
LC-002-002-----0
 62
     7
370
    50
100
AcDbCircle
 10
1655.294186
 20
1773.055602
 30
0.0
 40
25.00000000000031
100
AcDbArc
 50
95.0
 51
177.0
  0
ARC
  5
1CC
102
{ACAD_REACTORS
330
59F
102
}
330
1F
100
AcDbEntity
  8
LC-002-002-----0
 62
     7
370
    50
100
AcDbCircle
 10
1665.508128
 20
1443.250794
 30
0.0
 40
24.99999999999999
100
AcDbArc
 50
183.0
 51
265.0
  0
LINE
  5
1CD
102
{ACAD_REACTORS
330
59F
102
}
330
1F
100
AcDbEntity
  8
LC-002-002-----0
 62
     7
370
    50
100
AcDbLine
 10
1861.238127
 20
1380.2
 30
0.0
 11
1861.238127
 21
1388.327295
 31
0.0
  0
LINE
  5
1CE
102
{ACAD_REACTORS
330
59F
102
}
330
1F
100
AcDbEntity
  8
LC-002-002-----0
 62
     7
370
    50
100
AcDbLine
 10
1615.683258
 20
1643.874141
 30
0.0
 11
1615.683258
 21
1705.6
 31
0.0
  0
LINE
  5
1CF
102
{ACAD_REACTORS
330
59F
102
}
330
1F
100
AcDbEntity
  8
LC-002-002-----0
 62
     7
370
    50
100
AcDbLine
 10
1615.683258
 20
1705.6
 30
0.0
 11
1615.683258
 21
1767.325859
 31
0.0
  0
ARC
  5
1D0
102
{ACAD_REACTORS
330
59F
102
}
330
1F
100
AcDbEntity
  8
LC-002-002-----0
 62
     7
370
    50
100
AcDbCircle
 10
1654.288202
 20
1772.967589
 30
0.0
 40
33.00000000000016
100
AcDbArc
 50
95.0
 51
176.921144
  0
ARC
  5
1D1
102
{ACAD_REACTORS
330
59F
102
}
330
1F
100
AcDbEntity
  8
LC-002-002-----0
 62
     7
370
    50
100
AcDbCircle
 10
1664.502143
 20
1443.338807
 30
0.0
 40
33.00000000000003
100
AcDbArc
 50
183.0
 51
265.0
  0
LINE
  5
1D2
102
{ACAD_REACTORS
330
59F
102
}
330
1F
100
AcDbEntity
  8
LC-002-002-----0
 62
     7
370
    50
100
AcDbLine
 10
1853.738127
 20
1907.997239
 30
0.0
 11
1853.738127
 21
1904.767305
 31
0.0
  0
ARC
  5
1D3
102
{ACAD_REACTORS
330
59F
102
}
330
1F
100
AcDbEntity
  8
LC-002-002-----0
 62
     7
370
    50
100
AcDbCircle
 10
1615.344485
 20
1775.062294
 30
0.0
 40
5.999999942999948
100
AcDbArc
 50
295.0
 51
356.921128
  0
LINE
  5
1D4
102
{ACAD_REACTORS
330
59F
102
}
330
1F
100
AcDbEntity
  8
LC-002-002-----0
 62
     7
370
    50
100
AcDbLine
 10
1853.738127
 20
1383.202761
 30
0.0
 11
1853.738127
 21
1386.432695
 31
0.0
  0
LINE
  5
1D5
102
{ACAD_REACTORS
330
59F
102
}
330
1F
100
AcDbEntity
  8
LC-002-002-----0
 62
     7
370
    50
100
AcDbLine
 10
1853.738127
 20
1383.068276
 30
0.0
 11
1853.738127
 21
1383.202761
 31
0.0
  0
LINE
  5
1D6
102
{ACAD_REACTORS
330
59F
102
}
330
1F
100
AcDbEntity
  8
LC-002-002-----0
 62
     7
370
    50
100
AcDbLine
 10
1859.412438
 20
1381.203562
 30
0.0
 11
1855.107393
 21
1381.580205
 31
0.0
  0
LINE
  5
1D7
102
{ACAD_REACTORS
330
59F
102
}
330
1F
100
AcDbEntity
  8
LC-002-002-----0
 62
     7
370
    50
100
AcDbLine
 10
1853.738127
 20
1383.074497
 30
0.0
 11
1853.738127
 21
1383.074497
 31
0.0
  0
ARC
  5
1D8
102
{ACAD_REACTORS
330
59F
102
}
330
1F
100
AcDbEntity
  8
LC-002-002-----0
 62
     7
370
    50
100
AcDbCircle
 10
1855.238127
 20
1383.074497
 30
0.0
 40
1.500000000000028
100
AcDbArc
 50
256.001634
 51
265.0
  0
ARC
  5
1D9
102
{ACAD_REACTORS
330
59F
102
}
330
1F
100
AcDbEntity
  8
LC-002-002-----0
 62
     7
370
    50
100
AcDbCircle
 10
1855.238127
 20
1383.074497
 30
0.0
 40
1.500000000000071
100
AcDbArc
 50
188.998366
 51
256.001634
  0
ARC
  5
1DA
102
{ACAD_REACTORS
330
59F
102
}
330
1F
100
AcDbEntity
  8
LC-002-002-----0
 62
     7
370
    50
100
AcDbCircle
 10
1855.238127
 20
1383.074497
 30
0.0
 40
1.499999999999773
100
AcDbArc
 50
180.0
 51
188.998366
  0
LINE
  5
1DB
102
{ACAD_REACTORS
330
59F
102
}
330
1F
100
AcDbEntity
  8
LC-002-002-----0
 62
     7
370
    50
100
AcDbLine
 10
1853.738127
 20
1383.074497
 30
0.0
 11
1853.738127
 21
1386.433199
 31
0.0
  0
LINE
  5
1DC
102
{ACAD_REACTORS
330
59F
102
}
330
1F
100
AcDbEntity
  8
LC-002-002-----0
 62
     7
370
    50
100
AcDbLine
 10
1853.738127
 20
1386.433199
 30
0.0
 11
1853.738127
 21
1392.190619
 31
0.0
  0
ARC
  5
1DD
102
{ACAD_REACTORS
330
59F
102
}
330
1F
100
AcDbEntity
  8
LC-002-002-----0
 62
     7
370
    50
100
AcDbCircle
 10
1855.238127
 20
1383.074492
 30
0.0
 40
1.499998799500075
100
AcDbArc
 50
256.001601
 51
264.999985
  0
ARC
  5
1DE
102
{ACAD_REACTORS
330
59F
102
}
330
1F
100
AcDbEntity
  8
LC-002-002-----0
 62
     7
370
    50
100
AcDbCircle
 10
1855.238127
 20
1383.074497
 30
0.0
 40
1.499999999999971
100
AcDbArc
 50
256.001634
 51
265.0
  0
ARC
  5
1DF
102
{ACAD_REACTORS
330
59F
102
}
330
1F
100
AcDbEntity
  8
LC-002-002-----0
 62
     7
370
    50
100
AcDbCircle
 10
1855.238127
 20
1383.074497
 30
0.0
 40
1.500000000000112
100
AcDbArc
 50
188.998366
 51
256.001634
  0
ARC
  5
1E0
102
{ACAD_REACTORS
330
59F
102
}
330
1F
100
AcDbEntity
  8
LC-002-002-----0
 62
     7
370
    50
100
AcDbCircle
 10
1855.238127
 20
1383.074493
 30
0.0
 40
1.499999131899953
100
AcDbArc
 50
256.001606
 51
264.999987
  0
ARC
  5
1E1
102
{ACAD_REACTORS
330
59F
102
}
330
1F
100
AcDbEntity
  8
LC-002-002-----0
 62
     7
370
    50
100
AcDbCircle
 10
1855.238127
 20
1383.074497
 30
0.0
 40
1.500000000000067
100
AcDbArc
 50
255.998366
 51
265.0
  0
ARC
  5
1E2
102
{ACAD_REACTORS
330
59F
102
}
330
1F
100
AcDbEntity
  8
LC-002-002-----0
 62
     7
370
    50
100
AcDbCircle
 10
1852.138127
 20
1392.190619
 30
0.0
 40
1.600000000000136
100
AcDbArc
 50
0.0
 51
85.0
  0
ARC
  5
1E3
102
{ACAD_REACTORS
330
59F
102
}
330
1F
100
AcDbEntity
  8
LC-002-002-----0
 62
     7
370
    50
100
AcDbCircle
 10
1859.238127
 20
1379.211173
 30
0.0
 40
1.99999999999993
100
AcDbArc
 50
29.631094
 51
85.0
  0
LINE
  5
1E4
102
{ACAD_REACTORS
330
59F
102
}
330
1F
100
AcDbEntity
  8
LC-002-002-----0
 62
     7
370
    50
100
AcDbLine
 10
1859.412438
 20
1909.996438
 30
0.0
 11
1855.107393
 21
1909.619795
 31
0.0
  0
LINE
  5
1E5
102
{ACAD_REACTORS
330
59F
102
}
330
1F
100
AcDbEntity
  8
LC-002-002-----0
 62
     7
370
    50
100
AcDbLine
 10
1854.89289
 20
1892.961525
 30
0.0
 11
1858.9286
 21
1891.079643
 31
0.0
  0
ARC
  5
1E6
102
{ACAD_REACTORS
330
59F
102
}
330
1F
100
AcDbEntity
  8
LC-002-002-----0
 62
     7
370
    50
100
AcDbCircle
 10
1855.238127
 20
1908.125503
 30
0.0
 40
1.500000000000007
100
AcDbArc
 50
95.0
 51
180.0
  0
LINE
  5
1E7
102
{ACAD_REACTORS
330
59F
102
}
330
1F
100
AcDbEntity
  8
LC-002-002-----0
 62
     7
370
    50
100
AcDbLine
 10
1853.738127
 20
1908.125503
 30
0.0
 11
1853.738127
 21
1904.766801
 31
0.0
  0
LINE
  5
1E8
102
{ACAD_REACTORS
330
59F
102
}
330
1F
100
AcDbEntity
  8
LC-002-002-----0
 62
     7
370
    50
100
AcDbLine
 10
1853.738127
 20
1904.766801
 30
0.0
 11
1853.738127
 21
1897.493064
 31
0.0
  0
LINE
  5
1E9
102
{ACAD_REACTORS
330
59F
102
}
330
1F
100
AcDbEntity
  8
LC-002-002-----0
 62
     7
370
    50
100
AcDbLine
 10
1853.738127
 20
1897.493064
 30
0.0
 11
1853.738127
 21
1894.774141
 31
0.0
  0
ARC
  5
1EA
102
{ACAD_REACTORS
330
59F
102
}
330
1F
100
AcDbEntity
  8
LC-002-002-----0
 62
     7
370
    50
100
AcDbCircle
 10
1855.738127
 20
1894.774143
 30
0.0
 40
2.000000000000178
100
AcDbArc
 50
235.714322
 51
245.000029
  0
ARC
  5
1EB
102
{ACAD_REACTORS
330
59F
102
}
330
1F
100
AcDbEntity
  8
LC-002-002-----0
 62
     7
370
    50
100
AcDbCircle
 10
1855.738127
 20
1894.774143
 30
0.0
 40
2.000000000000048
100
AcDbArc
 50
232.340794
 51
235.714322
  0
ARC
  5
1EC
102
{ACAD_REACTORS
330
59F
102
}
330
1F
100
AcDbEntity
  8
LC-002-002-----0
 62
     7
370
    50
100
AcDbCircle
 10
1855.738127
 20
1894.774143
 30
0.0
 40
2.000000000000151
100
AcDbArc
 50
226.428615
 51
232.340794
  0
ARC
  5
1ED
102
{ACAD_REACTORS
330
59F
102
}
330
1F
100
AcDbEntity
  8
LC-002-002-----0
 62
     7
370
    50
100
AcDbCircle
 10
1855.738127
 20
1894.774143
 30
0.0
 40
1.999999999999833
100
AcDbArc
 50
222.308486
 51
226.428615
  0
ARC
  5
1EE
102
{ACAD_REACTORS
330
59F
102
}
330
1F
100
AcDbEntity
  8
LC-002-002-----0
 62
     7
370
    50
100
AcDbCircle
 10
1855.738127
 20
1894.774143
 30
0.0
 40
2.000000000000166
100
AcDbArc
 50
217.142908
 51
222.308486
  0
ARC
  5
1EF
102
{ACAD_REACTORS
330
59F
102
}
330
1F
100
AcDbEntity
  8
LC-002-002-----0
 62
     7
370
    50
100
AcDbCircle
 10
1855.738127
 20
1894.774143
 30
0.0
 40
2.000000000000091
100
AcDbArc
 50
212.587716
 51
217.142908
  0
ARC
  5
1F0
102
{ACAD_REACTORS
330
59F
102
}
330
1F
100
AcDbEntity
  8
LC-002-002-----0
 62
     7
370
    50
100
AcDbCircle
 10
1855.738127
 20
1894.774143
 30
0.0
 40
2.000000000000243
100
AcDbArc
 50
207.857199
 51
212.587716
  0
ARC
  5
1F1
102
{ACAD_REACTORS
330
59F
102
}
330
1F
100
AcDbEntity
  8
LC-002-002-----0
 62
     7
370
    50
100
AcDbCircle
 10
1855.738127
 20
1894.774143
 30
0.0
 40
2.000000000000139
100
AcDbArc
 50
202.866126
 51
207.857199
  0
ARC
  5
1F2
102
{ACAD_REACTORS
330
59F
102
}
330
1F
100
AcDbEntity
  8
LC-002-002-----0
 62
     7
370
    50
100
AcDbCircle
 10
1855.738127
 20
1894.774143
 30
0.0
 40
2.000000000000111
100
AcDbArc
 50
198.57149
 51
202.866126
  0
ARC
  5
1F3
102
{ACAD_REACTORS
330
59F
102
}
330
1F
100
AcDbEntity
  8
LC-002-002-----0
 62
     7
370
    50
100
AcDbCircle
 10
1855.738127
 20
1894.774143
 30
0.0
 40
1.999999999999977
100
AcDbArc
 50
192.825957
 51
198.57149
  0
ARC
  5
1F4
102
{ACAD_REACTORS
330
59F
102
}
330
1F
100
AcDbEntity
  8
LC-002-002-----0
 62
     7
370
    50
100
AcDbCircle
 10
1855.738127
 20
1894.774143
 30
0.0
 40
1.999999999999893
100
AcDbArc
 50
189.28578
 51
192.825957
  0
ARC
  5
1F5
102
{ACAD_REACTORS
330
59F
102
}
330
1F
100
AcDbEntity
  8
LC-002-002-----0
 62
     7
370
    50
100
AcDbCircle
 10
1855.738127
 20
1894.774143
 30
0.0
 40
1.999999999999843
100
AcDbArc
 50
180.000069
 51
189.28578
  0
LINE
  5
1F6
102
{ACAD_REACTORS
330
59F
102
}
330
1F
100
AcDbEntity
  8
LC-002-002-----0
 62
     7
370
    50
100
AcDbLine
 10
1853.738127
 20
1897.493064
 30
0.0
 11
1853.738127
 21
1894.774141
 31
0.0
  0
ARC
  5
1F7
102
{ACAD_REACTORS
330
59F
102
}
330
1F
100
AcDbEntity
  8
LC-002-002-----0
 62
     7
370
    50
100
AcDbCircle
 10
1859.238127
 20
1911.988827
 30
0.0
 40
2.000000000000133
100
AcDbArc
 50
275.0
 51
330.368906
  0
ARC
  5
1F8
102
{ACAD_REACTORS
330
59F
102
}
330
1F
100
AcDbEntity
  8
LC-002-002-----0
 62
     7
370
    50
100
AcDbCircle
 10
1617.683258
 20
1643.874141
 30
0.0
 40
1.999999999999773
100
AcDbArc
 50
180.0
 51
188.125
  0
ARC
  5
1F9
102
{ACAD_REACTORS
330
59F
102
}
330
1F
100
AcDbEntity
  8
LC-002-002-----0
 62
     7
370
    50
100
AcDbCircle
 10
1617.683258
 20
1643.874141
 30
0.0
 40
1.999999999999825
100
AcDbArc
 50
188.125
 51
196.25
  0
ARC
  5
1FA
102
{ACAD_REACTORS
330
59F
102
}
330
1F
100
AcDbEntity
  8
LC-002-002-----0
 62
     7
370
    50
100
AcDbCircle
 10
1617.683258
 20
1643.874141
 30
0.0
 40
2.000000000000104
100
AcDbArc
 50
196.25
 51
204.375
  0
ARC
  5
1FB
102
{ACAD_REACTORS
330
59F
102
}
330
1F
100
AcDbEntity
  8
LC-002-002-----0
 62
     7
370
    50
100
AcDbCircle
 10
1617.683258
 20
1643.874141
 30
0.0
 40
1.999999999999839
100
AcDbArc
 50
204.375
 51
212.5
  0
ARC
  5
1FC
102
{ACAD_REACTORS
330
59F
102
}
330
1F
100
AcDbEntity
  8
LC-002-002-----0
 62
     7
370
    50
100
AcDbCircle
 10
1617.683258
 20
1643.874141
 30
0.0
 40
1.999999999999859
100
AcDbArc
 50
212.5
 51
220.625
  0
ARC
  5
1FD
102
{ACAD_REACTORS
330
59F
102
}
330
1F
100
AcDbEntity
  8
LC-002-002-----0
 62
     7
370
    50
100
AcDbCircle
 10
1617.683258
 20
1643.874141
 30
0.0
 40
2.000000000000167
100
AcDbArc
 50
220.625
 51
228.75
  0
ARC
  5
1FE
102
{ACAD_REACTORS
330
59F
102
}
330
1F
100
AcDbEntity
  8
LC-002-002-----0
 62
     7
370
    50
100
AcDbCircle
 10
1617.683258
 20
1643.874141
 30
0.0
 40
1.999999999999958
100
AcDbArc
 50
228.75
 51
236.875
  0
ARC
  5
1FF
102
{ACAD_REACTORS
330
59F
102
}
330
1F
100
AcDbEntity
  8
LC-002-002-----0
 62
     7
370
    50
100
AcDbCircle
 10
1617.683258
 20
1643.874141
 30
0.0
 40
2.000000000000001
100
AcDbArc
 50
236.875
 51
245.0
  0
ARC
  5
200
102
{ACAD_REACTORS
330
59F
102
}
330
1F
100
AcDbEntity
  8
LC-002-002-----0
 62
     7
370
    50
100
AcDbCircle
 10
1617.683258
 20
1767.325859
 30
0.0
 40
2.000000000000123
100
AcDbArc
 50
115.0
 51
180.0
  0
LINE
  5
201
102
{ACAD_REACTORS
330
59F
102
}
330
1F
100
AcDbEntity
  8
LC-002-002-----0
 62
     7
370
    50
100
AcDbLine
 10
1616.838021
 20
1769.138475
 30
0.0
 11
1617.880194
 21
1769.624448
 31
0.0
  0
LINE
  5
202
102
{ACAD_REACTORS
330
59F
102
}
330
1F
100
AcDbEntity
  8
LC-002-002-----0
 62
     7
370
    50
100
AcDbLine
 10
1870.738127
 20
1421.079455
 30
0.0
 11
1870.738127
 21
1395.618344
 31
0.0
  0
LINE
  5
203
102
{ACAD_REACTORS
330
59F
102
}
330
1F
100
AcDbEntity
  8
LC-002-002-----0
 62
     7
370
    50
100
AcDbLine
 10
1629.792721
 20
1764.141714
 30
0.0
 11
1630.328448
 21
1774.364001
 31
0.0
  0
ARC
  5
204
102
{ACAD_REACTORS
330
59F
102
}
330
1F
100
AcDbEntity
  8
LC-002-002-----0
 62
     7
370
    50
100
AcDbCircle
 10
1857.238127
 20
1887.454415
 30
0.0
 40
3.999998610100056
100
AcDbArc
 50
57.777752
 51
64.999979
  0
ARC
  5
205
102
{ACAD_REACTORS
330
59F
102
}
330
1F
100
AcDbEntity
  8
LC-002-002-----0
 62
     7
370
    50
100
AcDbCircle
 10
1628.594365
 20
1764.204518
 30
0.0
 40
1.200000000000155
100
AcDbArc
 50
275.0
 51
357.0
  0
LINE
  5
206
102
{ACAD_REACTORS
330
59F
102
}
330
1F
100
AcDbEntity
  8
LC-002-002-----0
 62
     7
370
    50
100
AcDbLine
 10
1628.502534
 20
1762.9919
 30
0.0
 11
1629.738127
 21
1763.1
 31
0.0
  0
ARC
  5
207
102
{ACAD_REACTORS
330
59F
102
}
330
1F
100
AcDbEntity
  8
LC-002-002-----0
 62
     7
370
    50
100
AcDbCircle
 10
1857.238127
 20
1887.454412
 30
0.0
 40
4.0
100
AcDbArc
 50
0.0
 51
65.0
  0
LINE
  5
208
102
{ACAD_REACTORS
330
59F
102
}
330
1F
100
AcDbEntity
  8
LC-002-002-----0
 62
     7
370
    50
100
AcDbLine
 10
1624.759219
 20
1665.169202
 30
0.0
 11
1627.604882
 21
1649.030647
 31
0.0
  0
ARC
  5
209
102
{ACAD_REACTORS
330
59F
102
}
330
1F
100
AcDbEntity
  8
LC-002-002-----0
 62
     7
370
    50
100
AcDbCircle
 10
1628.58969
 20
1649.204295
 30
0.0
 40
1.000000000000085
100
AcDbArc
 50
190.0
 51
265.0
  0
LINE
  5
20A
102
{ACAD_REACTORS
330
59F
102
}
330
1F
100
AcDbEntity
  8
LC-002-002-----0
 62
     7
370
    50
100
AcDbLine
 10
1628.502534
 20
1648.2081
 30
0.0
 11
1628.698952
 21
1648.190916
 31
0.0
  0
ARC
  5
20B
102
{ACAD_REACTORS
330
59F
102
}
330
1F
100
AcDbEntity
  8
LC-002-002-----0
 62
     7
370
    50
100
AcDbCircle
 10
1628.594365
 20
1646.995482
 30
0.0
 40
1.199999999999922
100
AcDbArc
 50
3.0
 51
85.0
  0
LINE
  5
20C
102
{ACAD_REACTORS
330
59F
102
}
330
1F
100
AcDbEntity
  8
LC-002-002-----0
 62
     7
370
    50
100
AcDbLine
 10
1629.792721
 20
1647.058286
 30
0.0
 11
1640.542389
 21
1441.942395
 31
0.0
  0
ARC
  5
20D
102
{ACAD_REACTORS
330
59F
102
}
330
1F
100
AcDbEntity
  8
LC-002-002-----0
 62
     7
370
    50
100
AcDbCircle
 10
1865.738127
 20
1395.618344
 30
0.0
 40
5.0
100
AcDbArc
 50
0.0
 51
85.0
  0
ARC
  5
20E
102
{ACAD_REACTORS
330
59F
102
}
330
1F
100
AcDbEntity
  8
LC-002-002-----0
 62
     7
370
    50
100
AcDbCircle
 10
1866.738127
 20
1370.489475
 30
0.0
 40
4.000000000000019
100
AcDbArc
 50
274.0
 51
0.0
  0
ARC
  5
20F
102
{ACAD_REACTORS
330
59F
102
}
330
1F
100
AcDbEntity
  8
LC-002-002-----0
 62
     7
370
    50
100
AcDbCircle
 10
1856.138127
 20
1388.327295
 30
0.0
 40
5.100000000000136
100
AcDbArc
 50
0.0
 51
85.0
  0
LINE
  5
210
102
{ACAD_REACTORS
330
59F
102
}
330
1F
100
AcDbEntity
  8
LC-002-002-----0
 62
     7
370
    50
100
AcDbLine
 10
1621.336236
 20
1636.451733
 30
0.0
 11
1631.547368
 21
1441.61172
 31
0.0
  0
ARC
  5
211
102
{ACAD_REACTORS
330
59F
102
}
330
1F
100
AcDbEntity
  8
LC-002-002-----0
 62
     7
370
    50
100
AcDbCircle
 10
1615.344458
 20
1636.137717
 30
0.0
 40
6.00000000000009
100
AcDbArc
 50
3.0
 51
65.0
  0
LINE
  5
212
102
{ACAD_REACTORS
330
59F
102
}
330
1F
100
AcDbEntity
  8
LC-002-002-----0
 62
     7
370
    50
100
AcDbLine
 10
1616.838021
 20
1642.061525
 30
0.0
 11
1617.880168
 21
1641.575564
 31
0.0
  0
ARC
  5
213
102
{ACAD_REACTORS
330
59F
102
}
330
1F
100
AcDbEntity
  8
LC-002-002-----0
 62
     7
370
    50
100
AcDbCircle
 10
1617.683258
 20
1643.874141
 30
0.0
 40
1.999999999999773
100
AcDbArc
 50
180.0
 51
188.125
  0
ARC
  5
214
102
{ACAD_REACTORS
330
59F
102
}
330
1F
100
AcDbEntity
  8
LC-002-002-----0
 62
     7
370
    50
100
AcDbCircle
 10
1617.683258
 20
1643.874141
 30
0.0
 40
1.999999999999857
100
AcDbArc
 50
188.125
 51
196.25
  0
ARC
  5
215
102
{ACAD_REACTORS
330
59F
102
}
330
1F
100
AcDbEntity
  8
LC-002-002-----0
 62
     7
370
    50
100
AcDbCircle
 10
1617.683258
 20
1643.874141
 30
0.0
 40
1.999999999999685
100
AcDbArc
 50
196.25
 51
204.375
  0
ARC
  5
216
102
{ACAD_REACTORS
330
59F
102
}
330
1F
100
AcDbEntity
  8
LC-002-002-----0
 62
     7
370
    50
100
AcDbCircle
 10
1617.683258
 20
1643.874141
 30
0.0
 40
2.000000000000004
100
AcDbArc
 50
204.375
 51
212.5
  0
ARC
  5
217
102
{ACAD_REACTORS
330
59F
102
}
330
1F
100
AcDbEntity
  8
LC-002-002-----0
 62
     7
370
    50
100
AcDbCircle
 10
1617.683258
 20
1643.874141
 30
0.0
 40
1.999999999999859
100
AcDbArc
 50
212.5
 51
220.625
  0
ARC
  5
218
102
{ACAD_REACTORS
330
59F
102
}
330
1F
100
AcDbEntity
  8
LC-002-002-----0
 62
     7
370
    50
100
AcDbCircle
 10
1617.683258
 20
1643.874141
 30
0.0
 40
2.000000000000167
100
AcDbArc
 50
220.625
 51
228.75
  0
ARC
  5
219
102
{ACAD_REACTORS
330
59F
102
}
330
1F
100
AcDbEntity
  8
LC-002-002-----0
 62
     7
370
    50
100
AcDbCircle
 10
1617.683258
 20
1643.874141
 30
0.0
 40
1.999999999999958
100
AcDbArc
 50
228.75
 51
236.875
  0
ARC
  5
21A
102
{ACAD_REACTORS
330
59F
102
}
330
1F
100
AcDbEntity
  8
LC-002-002-----0
 62
     7
370
    50
100
AcDbCircle
 10
1617.683258
 20
1643.874141
 30
0.0
 40
2.000000000000001
100
AcDbArc
 50
236.875
 51
245.0
  0
ARC
  5
21B
102
{ACAD_REACTORS
330
59F
102
}
330
1F
100
AcDbEntity
  8
LC-002-002-----0
 62
     7
370
    50
100
AcDbCircle
 10
1617.683258
 20
1767.325859
 30
0.0
 40
2.000000000000123
100
AcDbArc
 50
115.0
 51
180.0
  0
ARC
  5
21C
102
{ACAD_REACTORS
330
59F
102
}
330
1F
100
AcDbEntity
  8
LC-002-002-----0
 62
     7
370
    50
100
AcDbCircle
 10
1856.138127
 20
1828.872705
 30
0.0
 40
5.099999999999831
100
AcDbArc
 50
275.0
 51
0.0
  0
ARC
  5
21D
102
{ACAD_REACTORS
330
59F
102
}
330
1F
100
AcDbEntity
  8
LC-002-002-----0
 62
     7
370
    50
100
AcDbCircle
 10
1866.738127
 20
1920.710525
 30
0.0
 40
4.0
100
AcDbArc
 50
0.0
 51
86.0
  0
ARC
  5
21E
102
{ACAD_REACTORS
330
59F
102
}
330
1F
100
AcDbEntity
  8
LC-002-002-----0
 62
     7
370
    50
100
AcDbCircle
 10
1865.738127
 20
1821.581656
 30
0.0
 40
4.99999999999988
100
AcDbArc
 50
275.0
 51
0.0
  0
LINE
  5
21F
102
{ACAD_REACTORS
330
59F
102
}
330
1F
100
AcDbEntity
  8
LC-002-002-----0
 62
     7
370
    50
100
AcDbLine
 10
1856.582621
 20
1393.407888
 30
0.0
 11
1661.626003
 21
1410.464382
 31
0.0
  0
LINE
  5
220
102
{ACAD_REACTORS
330
59F
102
}
330
1F
100
AcDbEntity
  8
LC-002-002-----0
 62
     7
370
    50
100
AcDbLine
 10
1856.582621
 20
1823.792112
 30
0.0
 11
1651.412062
 21
1805.842014
 31
0.0
  0
ARC
  5
221
102
{ACAD_REACTORS
330
59F
102
}
330
1F
100
AcDbEntity
  8
LC-002-002-----0
 62
     7
370
    50
100
AcDbCircle
 10
1628.58969
 20
1761.995705
 30
0.0
 40
0.9999999999998402
100
AcDbArc
 50
95.0
 51
170.0
  0
LINE
  5
222
102
{ACAD_REACTORS
330
59F
102
}
330
1F
100
AcDbEntity
  8
LC-002-002-----0
 62
     7
370
    50
100
AcDbLine
 10
1624.759219
 20
1746.030798
 30
0.0
 11
1627.604882
 21
1762.169353
 31
0.0
  0
ARC
  5
223
102
{ACAD_REACTORS
330
59F
102
}
330
1F
100
AcDbEntity
  8
LC-002-002-----0
 62
     7
370
    50
100
AcDbCircle
 10
1629.683258
 20
1745.162557
 30
0.0
 40
5.000000000000097
100
AcDbArc
 50
170.0
 51
180.0
  0
ARC
  5
224
102
{ACAD_REACTORS
330
59F
102
}
330
1F
100
AcDbEntity
  8
LC-002-002-----0
 62
     7
370
    50
100
AcDbCircle
 10
1629.683258
 20
1666.037443
 30
0.0
 40
5.0
100
AcDbArc
 50
180.0
 51
190.0
  0
LINE
  5
225
102
{ACAD_REACTORS
330
59F
102
}
330
1F
100
AcDbEntity
  8
LC-002-002-----0
 62
     7
370
    50
100
AcDbLine
 10
1616.838021
 20
1769.138475
 30
0.0
 11
1617.880194
 21
1769.624448
 31
0.0
  0
LINE
  5
226
102
{ACAD_REACTORS
330
59F
102
}
330
1F
100
AcDbEntity
  8
LC-002-002-----0
 62
     7
370
    50
100
AcDbLine
 10
1870.738127
 20
1817.0
 30
0.0
 11
1870.738127
 21
1810.804371
 31
0.0
  0
LINE
  5
227
102
{ACAD_REACTORS
330
59F
102
}
330
1F
100
AcDbEntity
  8
LC-002-002-----0
 62
     7
370
    50
100
AcDbLine
 10
1870.738127
 20
1810.804371
 30
0.0
 11
1870.738127
 21
1406.404455
 31
0.0
  0
LINE
  5
228
102
{ACAD_REACTORS
330
59F
102
}
330
1F
100
AcDbEntity
  8
LC-002-002-----0
 62
     7
370
    50
100
AcDbLine
 10
1870.738127
 20
1406.404455
 30
0.0
 11
1870.738127
 21
1400.2
 31
0.0
  0
LINE
  5
229
102
{ACAD_REACTORS
330
59E
102
}
330
1F
100
AcDbEntity
  8
LC-002-002-----0
 62
     7
370
    50
100
AcDbLine
 10
629.52937
 20
2322.905131
 30
0.0
 11
629.52937
 21
2332.786766
 31
0.0
  0
LINE
  5
22A
102
{ACAD_REACTORS
330
59E
102
}
330
1F
100
AcDbEntity
  8
LC-004-006-MLN-0
 62
     7
370
    25
100
AcDbLine
 10
1072.52937
 20
2319.905131
 30
0.0
 11
1072.52937
 21
2339.96
 31
0.0
  0
LINE
  5
22B
102
{ACAD_REACTORS
330
59E
102
}
330
1F
100
AcDbEntity
  8
LC-004-006-MLN-0
 62
     7
370
    25
100
AcDbLine
 10
674.52937
 20
2319.905131
 30
0.0
 11
674.52937
 21
2339.96
 31
0.0
  0
LINE
  5
22C
330
1F
100
AcDbEntity
  8
LC-002-002-----0
 62
     7
370
    50
100
AcDbLine
 10
674.52937
 20
2577.96
 30
0.0
 11
1072.52937
 21
2577.96
 31
0.0
  0
LINE
  5
22D
102
{ACAD_REACTORS
330
59E
102
}
330
1F
100
AcDbEntity
  8
LC-002-002-----0
 62
     7
370
    50
100
AcDbLine
 10
1117.52937
 20
2322.905131
 30
0.0
 11
1117.52937
 21
2332.786766
 31
0.0
  0
LINE
  5
22E
102
{ACAD_REACTORS
330
59E
102
}
330
1F
100
AcDbEntity
  8
LC-002-002-----0
 62
     7
370
    50
100
AcDbLine
 10
1027.52937
 20
2322.905131
 30
0.0
 11
1027.52937
 21
2332.786766
 31
0.0
  0
LINE
  5
22F
102
{ACAD_REACTORS
330
59E
102
}
330
1F
100
AcDbEntity
  8
LC-002-002-----0
 62
     7
370
    25
100
AcDbLine
 10
617.02937
 20
2336.96
 30
0.0
 11
732.02937
 21
2336.96
 31
0.0
  0
LINE
  5
230
102
{ACAD_REACTORS
330
59E
102
}
330
1F
100
AcDbEntity
  8
LC-002-002-----0
 62
     7
370
    50
100
AcDbLine
 10
674.52937
 20
2577.96
 30
0.0
 11
509.291074
 21
2577.96
 31
0.0
  0
LINE
  5
231
102
{ACAD_REACTORS
330
59C
102
}
330
1F
100
AcDbEntity
  8
LC-002-002-----0
 62
     7
370
    25
100
AcDbLine
 10
1022.518608
 20
2226.511762
 30
0.0
 11
1048.218608
 21
2226.511762
 31
0.0
  0
LINE
  5
232
102
{ACAD_REACTORS
330
59C
102
}
330
1F
100
AcDbEntity
  8
LC-002-002-----0
 62
     7
370
    25
100
AcDbLine
 10
1050.618608
 20
2228.911762
 30
0.0
 11
1052.634979
 21
2228.911762
 31
0.0
  0
LINE
  5
233
102
{ACAD_REACTORS
330
59C
102
}
330
1F
100
AcDbEntity
  8
LC-002-002-----0
 62
     7
370
    25
100
AcDbLine
 10
1022.518608
 20
2270.094043
 30
0.0
 11
1044.087155
 21
2270.094043
 31
0.0
  0
LINE
  5
234
102
{ACAD_REACTORS
330
59C
102
}
330
1F
100
AcDbEntity
  8
LC-002-002-----0
 62
     7
370
    25
100
AcDbLine
 10
1048.218718
 20
2226.511872
 30
0.0
 11
1050.618654
 21
2228.911808
 31
0.0
  0
INSERT
  5
23F
102
{ACAD_REACTORS
330
59D
102
}
330
1F
100
AcDbEntity
  8
LC-006-100-D00-0
 62
     6
370
    25
100
AcDbBlockReference
  2
POLY1
 10
0.0
 20
0.0
 30
0.0
  0
LINE
  5
240
102
{ACAD_REACTORS
330
59D
102
}
330
1F
100
AcDbEntity
  8
LC-002-002-----0
 62
     7
370
    25
100
AcDbLine
 10
1096.302123
 20
2210.073449
 30
0.0
 11
1094.821921
 21
2210.843994
 31
0.0
  0
LINE
  5
241
102
{ACAD_REACTORS
330
59D
102
}
330
1F
100
AcDbEntity
  8
LC-002-002-----0
 62
     7
370
    25
100
AcDbLine
 10
1096.302236
 20
2211.614269
 30
0.0
 11
1094.821816
 21
2212.384927
 31
0.0
  0
LINE
  5
242
102
{ACAD_REACTORS
330
59D
102
}
330
1F
100
AcDbEntity
  8
LC-002-002-----0
 62
     7
370
    25
100
AcDbLine
 10
1096.302123
 20
2213.155206
 30
0.0
 11
1094.822136
 21
2213.925638
 31
0.0
  0
LINE
  5
243
102
{ACAD_REACTORS
330
59D
102
}
330
1F
100
AcDbEntity
  8
LC-002-002-----0
 62
     7
370
    25
100
AcDbLine
 10
1096.302123
 20
2214.696084
 30
0.0
 11
1094.822136
 21
2215.466517
 31
0.0
  0
LINE
  5
244
102
{ACAD_REACTORS
330
59D
102
}
330
1F
100
AcDbEntity
  8
LC-002-002-----0
 62
     7
370
    25
100
AcDbLine
 10
1096.302123
 20
2216.236963
 30
0.0
 11
1094.822136
 21
2217.007395
 31
0.0
  0
LINE
  5
245
102
{ACAD_REACTORS
330
59D
102
}
330
1F
100
AcDbEntity
  8
LC-002-002-----0
 62
     7
370
    25
100
AcDbLine
 10
1096.302123
 20
2217.777841
 30
0.0
 11
1094.822136
 21
2218.548274
 31
0.0
  0
LINE
  5
246
102
{ACAD_REACTORS
330
59D
102
}
330
1F
100
AcDbEntity
  8
LC-002-002-----0
 62
     7
370
    25
100
AcDbLine
 10
1096.302123
 20
2219.31872
 30
0.0
 11
1094.822136
 21
2220.089152
 31
0.0
  0
LINE
  5
247
102
{ACAD_REACTORS
330
59D
102
}
330
1F
100
AcDbEntity
  8
LC-002-002-----0
 62
     7
370
    25
100
AcDbLine
 10
1095.536053
 20
2222.089178
 30
0.0
 11
1092.422305
 21
2225.202927
 31
0.0
  0
LINE
  5
248
102
{ACAD_REACTORS
330
59D
102
}
330
1F
100
AcDbEntity
  8
LC-002-002-----0
 62
     7
370
    25
100
AcDbLine
 10
1094.822329
 20
2208.302903
 30
0.0
 11
1050.022329
 21
2208.302903
 31
0.0
  0
LINE
  5
249
102
{ACAD_REACTORS
330
59D
102
}
330
1F
100
AcDbEntity
  8
LC-002-002-----0
 62
     7
370
    25
100
AcDbLine
 10
1052.422329
 20
2225.202903
 30
0.0
 11
1052.422329
 21
2228.911762
 31
0.0
  0
LINE
  5
24A
102
{ACAD_REACTORS
330
59D
102
}
330
1F
100
AcDbEntity
  8
LC-002-002-----0
 62
     7
370
    25
100
AcDbLine
 10
1095.536053
 20
2222.089178
 30
0.0
 11
1081.388724
 21
2222.089178
 31
0.0
  0
LINE
  5
24B
102
{ACAD_REACTORS
330
59D
102
}
330
1F
100
AcDbEntity
  8
LC-002-002-----0
 62
     7
370
    25
100
AcDbLine
 10
1092.422329
 20
2225.202903
 30
0.0
 11
1092.422329
 21
2229.131164
 31
0.0
  0
LINE
  5
24C
102
{ACAD_REACTORS
330
59D
102
}
330
1F
100
AcDbEntity
  8
LC-002-002-----0
 62
     7
370
    25
100
AcDbLine
 10
1094.822329
 20
2208.302903
 30
0.0
 11
1094.822329
 21
2209.302903
 31
0.0
  0
LINE
  5
24D
102
{ACAD_REACTORS
330
59D
102
}
330
1F
100
AcDbEntity
  8
LC-002-002-----0
 62
     7
370
    25
100
AcDbLine
 10
1094.822329
 20
2220.089052
 30
0.0
 11
1094.822329
 21
2222.089052
 31
0.0
  0
LINE
  5
24E
102
{ACAD_REACTORS
330
59D
102
}
330
1F
100
AcDbEntity
  8
LC-002-002-----0
 62
     7
370
    25
100
AcDbLine
 10
1049.308605
 20
2222.089178
 30
0.0
 11
1052.422353
 21
2225.202927
 31
0.0
  0
LINE
  5
24F
102
{ACAD_REACTORS
330
59D
102
}
330
1F
100
AcDbEntity
  8
LC-002-002-----0
 62
     7
370
    25
100
AcDbLine
 10
1094.822241
 20
2218.548128
 30
0.0
 11
1096.302236
 21
2219.318564
 31
0.0
  0
LINE
  5
250
102
{ACAD_REACTORS
330
59D
102
}
330
1F
100
AcDbEntity
  8
LC-002-002-----0
 62
     7
370
    25
100
AcDbLine
 10
1094.822241
 20
2217.007249
 30
0.0
 11
1096.302236
 21
2217.777685
 31
0.0
  0
LINE
  5
251
102
{ACAD_REACTORS
330
59D
102
}
330
1F
100
AcDbEntity
  8
LC-002-002-----0
 62
     7
370
    25
100
AcDbLine
 10
1094.822241
 20
2215.466371
 30
0.0
 11
1096.302236
 21
2216.236807
 31
0.0
  0
LINE
  5
252
102
{ACAD_REACTORS
330
59D
102
}
330
1F
100
AcDbEntity
  8
LC-002-002-----0
 62
     7
370
    25
100
AcDbLine
 10
1094.822241
 20
2213.925492
 30
0.0
 11
1096.302236
 21
2214.695929
 31
0.0
  0
LINE
  5
253
102
{ACAD_REACTORS
330
59D
102
}
330
1F
100
AcDbEntity
  8
LC-002-002-----0
 62
     7
370
    25
100
AcDbLine
 10
1094.821921
 20
2212.384447
 30
0.0
 11
1096.302236
 21
2213.15505
 31
0.0
  0
LINE
  5
254
102
{ACAD_REACTORS
330
59D
102
}
330
1F
100
AcDbEntity
  8
LC-002-002-----0
 62
     7
370
    25
100
AcDbLine
 10
1094.821816
 20
2210.843514
 30
0.0
 11
1096.302123
 21
2211.614113
 31
0.0
  0
LINE
  5
255
102
{ACAD_REACTORS
330
59D
102
}
330
1F
100
AcDbEntity
  8
LC-002-002-----0
 62
     7
370
    25
100
AcDbLine
 10
1094.821921
 20
2209.30269
 30
0.0
 11
1096.302236
 21
2210.073293
 31
0.0
  0
LINE
  5
256
102
{ACAD_REACTORS
330
59D
102
}
330
1F
100
AcDbEntity
  8
LC-002-002-----0
 62
     7
370
    25
100
AcDbLine
 10
1048.542535
 20
2210.073449
 30
0.0
 11
1050.022737
 21
2210.843994
 31
0.0
  0
LINE
  5
257
102
{ACAD_REACTORS
330
59D
102
}
330
1F
100
AcDbEntity
  8
LC-002-002-----0
 62
     7
370
    25
100
AcDbLine
 10
1048.542423
 20
2211.614269
 30
0.0
 11
1050.022842
 21
2212.384927
 31
0.0
  0
LINE
  5
258
102
{ACAD_REACTORS
330
59D
102
}
330
1F
100
AcDbEntity
  8
LC-002-002-----0
 62
     7
370
    25
100
AcDbLine
 10
1048.542535
 20
2213.155206
 30
0.0
 11
1050.022522
 21
2213.925638
 31
0.0
  0
LINE
  5
259
102
{ACAD_REACTORS
330
59D
102
}
330
1F
100
AcDbEntity
  8
LC-002-002-----0
 62
     7
370
    25
100
AcDbLine
 10
1048.542535
 20
2214.696084
 30
0.0
 11
1050.022522
 21
2215.466517
 31
0.0
  0
LINE
  5
25A
102
{ACAD_REACTORS
330
59D
102
}
330
1F
100
AcDbEntity
  8
LC-002-002-----0
 62
     7
370
    25
100
AcDbLine
 10
1048.542535
 20
2216.236963
 30
0.0
 11
1050.022522
 21
2217.007395
 31
0.0
  0
LINE
  5
25B
102
{ACAD_REACTORS
330
59D
102
}
330
1F
100
AcDbEntity
  8
LC-002-002-----0
 62
     7
370
    25
100
AcDbLine
 10
1048.542535
 20
2217.777841
 30
0.0
 11
1050.022522
 21
2218.548274
 31
0.0
  0
LINE
  5
25C
102
{ACAD_REACTORS
330
59D
102
}
330
1F
100
AcDbEntity
  8
LC-002-002-----0
 62
     7
370
    25
100
AcDbLine
 10
1048.542535
 20
2219.31872
 30
0.0
 11
1050.022522
 21
2220.089152
 31
0.0
  0
LINE
  5
25D
102
{ACAD_REACTORS
330
59D
102
}
330
1F
100
AcDbEntity
  8
LC-002-002-----0
 62
     7
370
    25
100
AcDbLine
 10
1050.022329
 20
2208.302903
 30
0.0
 11
1050.022329
 21
2209.302903
 31
0.0
  0
LINE
  5
25E
102
{ACAD_REACTORS
330
59D
102
}
330
1F
100
AcDbEntity
  8
LC-002-002-----0
 62
     7
370
    25
100
AcDbLine
 10
1050.022329
 20
2220.089052
 30
0.0
 11
1050.022329
 21
2222.089052
 31
0.0
  0
LINE
  5
25F
102
{ACAD_REACTORS
330
59D
102
}
330
1F
100
AcDbEntity
  8
LC-002-002-----0
 62
     7
370
    25
100
AcDbLine
 10
1050.022417
 20
2218.548128
 30
0.0
 11
1048.542423
 21
2219.318564
 31
0.0
  0
LINE
  5
260
102
{ACAD_REACTORS
330
59D
102
}
330
1F
100
AcDbEntity
  8
LC-002-002-----0
 62
     7
370
    25
100
AcDbLine
 10
1050.022417
 20
2217.007249
 30
0.0
 11
1048.542423
 21
2217.777685
 31
0.0
  0
LINE
  5
261
102
{ACAD_REACTORS
330
59D
102
}
330
1F
100
AcDbEntity
  8
LC-002-002-----0
 62
     7
370
    25
100
AcDbLine
 10
1050.022417
 20
2215.466371
 30
0.0
 11
1048.542423
 21
2216.236807
 31
0.0
  0
LINE
  5
262
102
{ACAD_REACTORS
330
59D
102
}
330
1F
100
AcDbEntity
  8
LC-002-002-----0
 62
     7
370
    25
100
AcDbLine
 10
1050.022417
 20
2213.925492
 30
0.0
 11
1048.542423
 21
2214.695929
 31
0.0
  0
LINE
  5
263
102
{ACAD_REACTORS
330
59D
102
}
330
1F
100
AcDbEntity
  8
LC-002-002-----0
 62
     7
370
    25
100
AcDbLine
 10
1050.022737
 20
2212.384447
 30
0.0
 11
1048.542423
 21
2213.15505
 31
0.0
  0
LINE
  5
264
102
{ACAD_REACTORS
330
59D
102
}
330
1F
100
AcDbEntity
  8
LC-002-002-----0
 62
     7
370
    25
100
AcDbLine
 10
1050.022842
 20
2210.843514
 30
0.0
 11
1048.542535
 21
2211.614113
 31
0.0
  0
LINE
  5
265
102
{ACAD_REACTORS
330
59D
102
}
330
1F
100
AcDbEntity
  8
LC-002-002-----0
 62
     7
370
    25
100
AcDbLine
 10
1050.022737
 20
2209.30269
 30
0.0
 11
1048.542423
 21
2210.073293
 31
0.0
  0
LINE
  5
266
102
{ACAD_REACTORS
330
59C
102
}
330
1F
100
AcDbEntity
  8
LC-002-002-----0
 62
     7
370
    25
100
AcDbLine
 10
1020.018608
 20
2220.598109
 30
0.0
 11
1022.518608
 21
2220.598109
 31
0.0
  0
LINE
  5
267
102
{ACAD_REACTORS
330
59C
102
}
330
1F
100
AcDbEntity
  8
LC-002-002-----0
 62
     7
370
    25
100
AcDbLine
 10
1019.018608
 20
2221.348109
 30
0.0
 11
1019.268608
 21
2221.348109
 31
0.0
  0
LINE
  5
268
102
{ACAD_REACTORS
330
59C
102
}
330
1F
100
AcDbEntity
  8
LC-002-002-----0
 62
     7
370
    25
100
AcDbLine
 10
1019.018608
 20
2222.502903
 30
0.0
 11
1005.518608
 21
2222.502903
 31
0.0
  0
LINE
  5
269
102
{ACAD_REACTORS
330
59C
102
}
330
1F
100
AcDbEntity
  8
LC-002-002-----0
 62
     7
370
    25
100
AcDbLine
 10
1019.018608
 20
2274.102903
 30
0.0
 11
1005.518608
 21
2274.102903
 31
0.0
  0
LINE
  5
26A
102
{ACAD_REACTORS
330
59C
102
}
330
1F
100
AcDbEntity
  8
LC-002-002-----0
 62
     7
370
    25
100
AcDbLine
 10
1019.018608
 20
2275.257696
 30
0.0
 11
1019.268608
 21
2275.257696
 31
0.0
  0
LINE
  5
26B
102
{ACAD_REACTORS
330
59C
102
}
330
1F
100
AcDbEntity
  8
LC-002-002-----0
 62
     7
370
    25
100
AcDbLine
 10
1020.018608
 20
2276.007696
 30
0.0
 11
1022.518608
 21
2276.007696
 31
0.0
  0
LINE
  5
26C
102
{ACAD_REACTORS
330
59C
102
}
330
1F
100
AcDbEntity
  8
LC-002-002-----0
 62
     7
370
    25
100
AcDbLine
 10
1019.268607
 20
2221.348111
 30
0.0
 11
1020.018607
 21
2220.59811
 31
0.0
  0
LINE
  5
26D
102
{ACAD_REACTORS
330
59C
102
}
330
1F
100
AcDbEntity
  8
LC-002-002-----0
 62
     7
370
    25
100
AcDbLine
 10
1003.518608
 20
2272.102903
 30
0.0
 11
1003.518608
 21
2224.502903
 31
0.0
  0
LINE
  5
26E
102
{ACAD_REACTORS
330
59C
102
}
330
1F
100
AcDbEntity
  8
LC-002-002-----0
 62
     7
370
    25
100
AcDbLine
 10
1019.018608
 20
2275.257678
 30
0.0
 11
1019.018608
 21
2274.102903
 31
0.0
  0
LINE
  5
26F
102
{ACAD_REACTORS
330
59C
102
}
330
1F
100
AcDbEntity
  8
LC-002-002-----0
 62
     7
370
    25
100
AcDbLine
 10
1022.518608
 20
2276.007696
 30
0.0
 11
1022.518608
 21
2220.598109
 31
0.0
  0
LINE
  5
270
102
{ACAD_REACTORS
330
59C
102
}
330
1F
100
AcDbEntity
  8
LC-002-002-----0
 62
     7
370
    25
100
AcDbLine
 10
1019.268607
 20
2275.257695
 30
0.0
 11
1020.018607
 21
2276.007695
 31
0.0
  0
ARC
  5
271
102
{ACAD_REACTORS
330
59C
102
}
330
1F
100
AcDbEntity
  8
LC-002-002-----0
 62
     7
370
    25
100
AcDbCircle
 10
1005.518608
 20
2272.102903
 30
0.0
 40
2.0
100
AcDbArc
 50
90.0
 51
180.0
  0
ARC
  5
272
102
{ACAD_REACTORS
330
59C
102
}
330
1F
100
AcDbEntity
  8
LC-002-002-----0
 62
     7
370
    25
100
AcDbCircle
 10
1005.518608
 20
2224.502903
 30
0.0
 40
2.0
100
AcDbArc
 50
180.0
 51
270.0
  0
LINE
  5
273
102
{ACAD_REACTORS
330
59D
102
}
330
1F
100
AcDbEntity
  8
LC-002-002-----0
 62
     7
370
    25
100
AcDbLine
 10
1087.717757
 20
2225.203001
 30
0.0
 11
1092.422231
 21
2225.203001
 31
0.0
  0
LINE
  5
274
102
{ACAD_REACTORS
330
59D
102
}
330
1F
100
AcDbEntity
  8
LC-002-002-----0
 62
     7
370
    25
100
AcDbLine
 10
1063.455934
 20
2222.089178
 30
0.0
 11
1049.308605
 21
2222.089178
 31
0.0
  0
LINE
  5
275
102
{ACAD_REACTORS
330
59C
102
}
330
1F
100
AcDbEntity
  8
LC-002-002-----0
 62
     7
370
    25
100
AcDbLine
 10
1019.018608
 20
2271.515289
 30
0.0
 11
1005.518608
 21
2271.515289
 31
0.0
  0
INSERT
  5
285
102
{ACAD_REACTORS
330
59C
102
}
330
1F
100
AcDbEntity
  8
LC-002-002-----0
 62
     7
370
    25
100
AcDbBlockReference
  2
POLY2
 10
0.0
 20
0.0
 30
0.0
  0
INSERT
  5
295
102
{ACAD_REACTORS
330
59C
102
}
330
1F
100
AcDbEntity
  8
LC-002-002-----0
 62
     7
370
    25
100
AcDbBlockReference
  2
POLY3
 10
0.0
 20
0.0
 30
0.0
  0
LINE
  5
296
102
{ACAD_REACTORS
330
59C
102
}
330
1F
100
AcDbEntity
  8
LC-002-002-----0
 62
     7
370
    25
100
AcDbLine
 10
1005.518608
 20
2225.090408
 30
0.0
 11
1019.018608
 21
2225.090408
 31
0.0
  0
INSERT
  5
2A6
102
{ACAD_REACTORS
330
59C
102
}
330
1F
100
AcDbEntity
  8
LC-002-002-----0
 62
     7
370
    25
100
AcDbBlockReference
  2
POLY4
 10
0.0
 20
0.0
 30
0.0
  0
LINE
  5
2A7
102
{ACAD_REACTORS
330
59C
102
}
330
1F
100
AcDbEntity
  8
LC-002-002-----0
 62
     7
370
    25
100
AcDbLine
 10
1019.018608
 20
2248.30145
 30
0.0
 11
1005.518608
 21
2248.30145
 31
0.0
  0
ARC
  5
2A8
102
{ACAD_REACTORS
330
59D
102
}
330
1F
100
AcDbEntity
  8
LC-002-002-----0
 62
     7
370
    25
100
AcDbCircle
 10
1072.422329
 20
2248.302903
 30
0.0
 40
22.0
100
AcDbArc
 50
180.0
 51
0.0
  0
LINE
  5
2A9
102
{ACAD_REACTORS
330
59D
102
}
330
1F
100
AcDbEntity
  8
LC-002-002-----0
 62
     7
370
    25
100
AcDbLine
 10
1050.422329
 20
2248.302903
 30
0.0
 11
1050.422329
 21
2261.994087
 31
0.0
  0
LINE
  5
2AA
102
{ACAD_REACTORS
330
59D
102
}
330
1F
100
AcDbEntity
  8
LC-002-002-----0
 62
     7
370
    25
100
AcDbLine
 10
1094.422329
 20
2248.302903
 30
0.0
 11
1094.422329
 21
2261.994087
 31
0.0
  0
LINE
  5
2AB
102
{ACAD_REACTORS
330
59D
102
}
330
1F
100
AcDbEntity
  8
LC-002-002-----0
 62
     7
370
    25
100
AcDbLine
 10
1109.922329
 20
2280.26245
 30
0.0
 11
1107.920467
 21
2280.26245
 31
0.0
  0
LINE
  5
2AC
102
{ACAD_REACTORS
330
59D
102
}
330
1F
100
AcDbEntity
  8
LC-002-002-----0
 62
     7
370
    25
100
AcDbLine
 10
1107.920467
 20
2279.559205
 30
0.0
 11
1107.920467
 21
2280.26245
 31
0.0
  0
LINE
  5
2AD
102
{ACAD_REACTORS
330
59D
102
}
330
1F
100
AcDbEntity
  8
LC-002-002-----0
 62
     7
370
    25
100
AcDbLine
 10
1109.922329
 20
2282.76245
 30
0.0
 11
1109.922329
 21
2280.26245
 31
0.0
  0
LINE
  5
2AE
102
{ACAD_REACTORS
330
59D
102
}
330
1F
100
AcDbEntity
  8
LC-002-002-----0
 62
     7
370
    25
100
AcDbLine
 10
1100.711268
 20
2269.804069
 30
0.0
 11
1101.189714
 21
2272.422933
 31
0.0
  0
ARC
  5
2AF
102
{ACAD_REACTORS
330
59D
102
}
330
1F
100
AcDbEntity
  8
LC-002-002-----0
 62
     7
370
    25
100
AcDbCircle
 10
1094.317104
 20
2270.97226
 30
0.0
 40
6.500000000000005
100
AcDbArc
 50
289.07704
 51
349.645823
  0
ARC
  5
2B0
102
{ACAD_REACTORS
330
59D
102
}
330
1F
100
AcDbEntity
  8
LC-002-002-----0
 62
     7
370
    25
100
AcDbCircle
 10
1097.422329
 20
2261.994087
 30
0.0
 40
3.000000000000295
100
AcDbArc
 50
109.055448
 51
180.0
  0
ARC
  5
2B1
102
{ACAD_REACTORS
330
59D
102
}
330
1F
100
AcDbEntity
  8
LC-002-002-----0
 62
     7
370
    25
100
AcDbCircle
 10
1105.920467
 20
2279.559205
 30
0.0
 40
1.999999999999772
100
AcDbArc
 50
334.152631
 51
0.0
  0
ARC
  5
2B2
102
{ACAD_REACTORS
330
59D
102
}
330
1F
100
AcDbEntity
  8
LC-002-002-----0
 62
     7
370
    25
100
AcDbCircle
 10
1102.320533
 20
2281.302903
 30
0.0
 40
5.999999999999909
100
AcDbArc
 50
286.283517
 51
334.155028
  0
ARC
  5
2B3
102
{ACAD_REACTORS
330
59D
102
}
330
1F
100
AcDbEntity
  8
LC-002-002-----0
 62
     7
370
    25
100
AcDbCircle
 10
1105.124592
 20
2271.704087
 30
0.0
 40
4.000000000000306
100
AcDbArc
 50
106.281751
 51
169.647048
  0
LINE
  5
2B4
102
{ACAD_REACTORS
330
59D
102
}
330
1F
100
AcDbEntity
  8
LC-002-002-----0
 62
     7
370
    25
100
AcDbLine
 10
1036.924192
 20
2279.559205
 30
0.0
 11
1036.924192
 21
2280.26245
 31
0.0
  0
LINE
  5
2B5
102
{ACAD_REACTORS
330
59D
102
}
330
1F
100
AcDbEntity
  8
LC-002-002-----0
 62
     7
370
    25
100
AcDbLine
 10
1034.922329
 20
2282.76245
 30
0.0
 11
1034.922329
 21
2280.26245
 31
0.0
  0
LINE
  5
2B6
102
{ACAD_REACTORS
330
59D
102
}
330
1F
100
AcDbEntity
  8
LC-002-002-----0
 62
     7
370
    25
100
AcDbLine
 10
1044.13339
 20
2269.804069
 30
0.0
 11
1043.654944
 21
2272.422933
 31
0.0
  0
ARC
  5
2B7
102
{ACAD_REACTORS
330
59D
102
}
330
1F
100
AcDbEntity
  8
LC-002-002-----0
 62
     7
370
    25
100
AcDbCircle
 10
1050.527554
 20
2270.97226
 30
0.0
 40
6.499999999999891
100
AcDbArc
 50
190.354177
 51
250.92296
  0
ARC
  5
2B8
102
{ACAD_REACTORS
330
59D
102
}
330
1F
100
AcDbEntity
  8
LC-002-002-----0
 62
     7
370
    25
100
AcDbCircle
 10
1047.422329
 20
2261.994087
 30
0.0
 40
2.999999995699682
100
AcDbArc
 50
0.0
 51
70.944552
  0
ARC
  5
2B9
102
{ACAD_REACTORS
330
59D
102
}
330
1F
100
AcDbEntity
  8
LC-002-002-----0
 62
     7
370
    25
100
AcDbCircle
 10
1038.924192
 20
2279.559205
 30
0.0
 40
1.999999999999773
100
AcDbArc
 50
180.0
 51
205.847369
  0
ARC
  5
2BA
102
{ACAD_REACTORS
330
59D
102
}
330
1F
100
AcDbEntity
  8
LC-002-002-----0
 62
     7
370
    25
100
AcDbCircle
 10
1042.524125
 20
2281.302903
 30
0.0
 40
5.999999999999802
100
AcDbArc
 50
205.844972
 51
253.716483
  0
ARC
  5
2BB
102
{ACAD_REACTORS
330
59D
102
}
330
1F
100
AcDbEntity
  8
LC-002-002-----0
 62
     7
370
    25
100
AcDbCircle
 10
1039.720066
 20
2271.704087
 30
0.0
 40
3.999999999999939
100
AcDbArc
 50
10.352952
 51
73.718249
  0
ARC
  5
2BC
102
{ACAD_REACTORS
330
59D
102
}
330
1F
100
AcDbEntity
  8
LC-002-002-----0
 62
     7
370
    25
100
AcDbCircle
 10
1072.422329
 20
2248.302903
 30
0.0
 40
27.70479324130034
100
AcDbArc
 50
145.394244
 51
34.605756
  0
LINE
  5
2BD
102
{ACAD_REACTORS
330
59D
102
}
330
1F
100
AcDbEntity
  8
LC-002-002-----0
 62
     7
370
    25
100
AcDbLine
 10
1017.422329
 20
2322.905131
 30
0.0
 11
1127.422329
 21
2322.905131
 31
0.0
  0
LINE
  5
2BE
102
{ACAD_REACTORS
330
59D
102
}
330
1F
100
AcDbEntity
  8
LC-002-002-----0
 62
     7
370
    25
100
AcDbLine
 10
1127.422329
 20
2318.905131
 30
0.0
 11
1127.422329
 21
2322.905131
 31
0.0
  0
LINE
  5
2BF
102
{ACAD_REACTORS
330
59D
102
}
330
1F
100
AcDbEntity
  8
LC-002-002-----0
 62
     7
370
    25
100
AcDbLine
 10
1111.927293
 20
2282.76245
 30
0.0
 11
1109.922329
 21
2282.76245
 31
0.0
  0
LINE
  5
2C0
102
{ACAD_REACTORS
330
59D
102
}
330
1F
100
AcDbEntity
  8
LC-002-002-----0
 62
     7
370
    25
100
AcDbLine
 10
1115.171719
 20
2287.092224
 30
0.0
 11
1116.921694
 21
2288.102573
 31
0.0
  0
LINE
  5
2C1
102
{ACAD_REACTORS
330
59D
102
}
330
1F
100
AcDbEntity
  8
LC-002-002-----0
 62
     7
370
    25
100
AcDbLine
 10
1119.922329
 20
2293.299092
 30
0.0
 11
1119.922329
 21
2308.76245
 31
0.0
  0
LINE
  5
2C2
102
{ACAD_REACTORS
330
59D
102
}
330
1F
100
AcDbEntity
  8
LC-002-002-----0
 62
     7
370
    25
100
AcDbLine
 10
1127.422329
 20
2318.444908
 30
0.0
 11
1127.422329
 21
2318.905131
 31
0.0
  0
ARC
  5
2C3
102
{ACAD_REACTORS
330
59D
102
}
330
1F
100
AcDbEntity
  8
LC-002-002-----0
 62
     7
370
    25
100
AcDbCircle
 10
1123.922329
 20
2308.76245
 30
0.0
 40
3.999999999999812
100
AcDbArc
 50
104.492147
 51
180.0
  0
ARC
  5
2C4
102
{ACAD_REACTORS
330
59D
102
}
330
1F
100
AcDbEntity
  8
LC-002-002-----0
 62
     7
370
    25
100
AcDbCircle
 10
1121.422329
 20
2318.444908
 30
0.0
 40
5.999999999999658
100
AcDbArc
 50
284.469452
 51
0.0
  0
ARC
  5
2C5
102
{ACAD_REACTORS
330
59D
102
}
330
1F
100
AcDbEntity
  8
LC-002-002-----0
 62
     7
370
    25
100
AcDbCircle
 10
1113.922329
 20
2293.299092
 30
0.0
 40
5.999999999999977
100
AcDbArc
 50
299.988476
 51
0.0
  0
ARC
  5
2C6
102
{ACAD_REACTORS
330
59D
102
}
330
1F
100
AcDbEntity
  8
LC-002-002-----0
 62
     7
370
    25
100
AcDbCircle
 10
1117.672329
 20
2282.76245
 30
0.0
 40
4.999999999999906
100
AcDbArc
 50
120.016153
 51
172.072225
  0
ARC
  5
2C7
102
{ACAD_REACTORS
330
59D
102
}
330
1F
100
AcDbEntity
  8
LC-002-002-----0
 62
     7
370
    25
100
AcDbCircle
 10
1027.172329
 20
2282.76245
 30
0.0
 40
4.999999999999969
100
AcDbArc
 50
7.927775
 51
33.954632
  0
ARC
  5
2C8
102
{ACAD_REACTORS
330
59D
102
}
330
1F
100
AcDbEntity
  8
LC-002-002-----0
 62
     7
370
    25
100
AcDbCircle
 10
1111.927767
 20
2283.56245
 30
0.0
 40
0.7999999999997272
100
AcDbArc
 50
270.0
 51
352.062606
  0
ARC
  5
2C9
102
{ACAD_REACTORS
330
59D
102
}
330
1F
100
AcDbEntity
  8
LC-002-002-----0
 62
     7
370
    25
100
AcDbCircle
 10
1032.916892
 20
2283.56245
 30
0.0
 40
0.7999999999998813
100
AcDbArc
 50
187.937394
 51
270.0
  0
LINE
  5
2CA
102
{ACAD_REACTORS
330
59C
102
}
330
1F
100
AcDbEntity
  8
LC-002-002-----0
 62
     7
370
    25
100
AcDbLine
 10
693.510357
 20
2228.302903
 30
0.0
 11
1003.518608
 21
2228.302903
 31
0.0
  0
LINE
  5
2CB
102
{ACAD_REACTORS
330
59C
102
}
330
1F
100
AcDbEntity
  8
LC-002-002-----0
 62
     7
370
    25
100
AcDbLine
 10
702.159988
 20
2268.302903
 30
0.0
 11
1003.518608
 21
2268.302903
 31
0.0
  0
ARC
  5
2CC
102
{ACAD_REACTORS
330
5A1
102
}
330
1F
100
AcDbEntity
  8
LC-002-002-----0
 62
     7
370
    25
100
AcDbCircle
 10
674.338618
 20
2248.302903
 30
0.0
 40
22.00000000000023
100
AcDbArc
 50
180.0
 51
0.0
  0
LINE
  5
2CD
102
{ACAD_REACTORS
330
5A1
102
}
330
1F
100
AcDbEntity
  8
LC-002-002-----0
 62
     7
370
    25
100
AcDbLine
 10
652.338618
 20
2248.302903
 30
0.0
 11
652.338618
 21
2261.994087
 31
0.0
  0
LINE
  5
2CE
102
{ACAD_REACTORS
330
5A1
102
}
330
1F
100
AcDbEntity
  8
LC-002-002-----0
 62
     7
370
    25
100
AcDbLine
 10
696.338618
 20
2248.302903
 30
0.0
 11
696.338618
 21
2261.994087
 31
0.0
  0
LINE
  5
2CF
102
{ACAD_REACTORS
330
5A1
102
}
330
1F
100
AcDbEntity
  8
LC-002-002-----0
 62
     7
370
    25
100
AcDbLine
 10
619.338618
 20
2322.905131
 30
0.0
 11
729.338618
 21
2322.905131
 31
0.0
  0
LINE
  5
2D0
102
{ACAD_REACTORS
330
5A1
102
}
330
1F
100
AcDbEntity
  8
LC-002-002-----0
 62
     7
370
    25
100
AcDbLine
 10
729.338618
 20
2318.905131
 30
0.0
 11
729.338618
 21
2322.905131
 31
0.0
  0
LINE
  5
2D1
102
{ACAD_REACTORS
330
5A1
102
}
330
1F
100
AcDbEntity
  8
LC-002-002-----0
 62
     7
370
    25
100
AcDbLine
 10
711.838618
 20
2280.26245
 30
0.0
 11
709.836755
 21
2280.26245
 31
0.0
  0
LINE
  5
2D2
102
{ACAD_REACTORS
330
5A1
102
}
330
1F
100
AcDbEntity
  8
LC-002-002-----0
 62
     7
370
    25
100
AcDbLine
 10
713.843581
 20
2282.76245
 30
0.0
 11
711.838618
 21
2282.76245
 31
0.0
  0
LINE
  5
2D3
102
{ACAD_REACTORS
330
5A1
102
}
330
1F
100
AcDbEntity
  8
LC-002-002-----0
 62
     7
370
    25
100
AcDbLine
 10
717.088008
 20
2287.092225
 30
0.0
 11
718.837983
 21
2288.102573
 31
0.0
  0
LINE
  5
2D4
102
{ACAD_REACTORS
330
5A1
102
}
330
1F
100
AcDbEntity
  8
LC-002-002-----0
 62
     7
370
    25
100
AcDbLine
 10
709.836755
 20
2279.559205
 30
0.0
 11
709.836755
 21
2280.26245
 31
0.0
  0
LINE
  5
2D5
102
{ACAD_REACTORS
330
5A1
102
}
330
1F
100
AcDbEntity
  8
LC-002-002-----0
 62
     7
370
    25
100
AcDbLine
 10
711.838618
 20
2282.76245
 30
0.0
 11
711.838618
 21
2280.26245
 31
0.0
  0
LINE
  5
2D6
102
{ACAD_REACTORS
330
5A1
102
}
330
1F
100
AcDbEntity
  8
LC-002-002-----0
 62
     7
370
    25
100
AcDbLine
 10
721.838618
 20
2293.299092
 30
0.0
 11
721.838618
 21
2308.76245
 31
0.0
  0
LINE
  5
2D7
102
{ACAD_REACTORS
330
5A1
102
}
330
1F
100
AcDbEntity
  8
LC-002-002-----0
 62
     7
370
    25
100
AcDbLine
 10
702.627557
 20
2269.804069
 30
0.0
 11
703.106003
 21
2272.422933
 31
0.0
  0
LINE
  5
2D8
102
{ACAD_REACTORS
330
5A1
102
}
330
1F
100
AcDbEntity
  8
LC-002-002-----0
 62
     7
370
    25
100
AcDbLine
 10
729.338618
 20
2318.444908
 30
0.0
 11
729.338618
 21
2318.905131
 31
0.0
  0
ARC
  5
2D9
102
{ACAD_REACTORS
330
5A1
102
}
330
1F
100
AcDbEntity
  8
LC-002-002-----0
 62
     7
370
    25
100
AcDbCircle
 10
725.838618
 20
2308.76245
 30
0.0
 40
3.999999999999372
100
AcDbArc
 50
104.492147
 51
180.0
  0
ARC
  5
2DA
102
{ACAD_REACTORS
330
5A1
102
}
330
1F
100
AcDbEntity
  8
LC-002-002-----0
 62
     7
370
    25
100
AcDbCircle
 10
723.338618
 20
2318.444908
 30
0.0
 40
6.000000000000098
100
AcDbArc
 50
284.469452
 51
0.0
  0
ARC
  5
2DB
102
{ACAD_REACTORS
330
5A1
102
}
330
1F
100
AcDbEntity
  8
LC-002-002-----0
 62
     7
370
    25
100
AcDbCircle
 10
715.838618
 20
2293.299092
 30
0.0
 40
5.999999999999977
100
AcDbArc
 50
299.988476
 51
0.0
  0
ARC
  5
2DC
102
{ACAD_REACTORS
330
5A1
102
}
330
1F
100
AcDbEntity
  8
LC-002-002-----0
 62
     7
370
    25
100
AcDbCircle
 10
719.588618
 20
2282.76245
 30
0.0
 40
5.0000000000003
100
AcDbArc
 50
120.016153
 51
172.072225
  0
ARC
  5
2DD
102
{ACAD_REACTORS
330
5A1
102
}
330
1F
100
AcDbEntity
  8
LC-002-002-----0
 62
     7
370
    25
100
AcDbCircle
 10
713.844055
 20
2283.56245
 30
0.0
 40
0.7999999999997272
100
AcDbArc
 50
270.0
 51
352.062606
  0
ARC
  5
2DE
102
{ACAD_REACTORS
330
5A1
102
}
330
1F
100
AcDbEntity
  8
LC-002-002-----0
 62
     7
370
    25
100
AcDbCircle
 10
696.233393
 20
2270.97226
 30
0.0
 40
6.499999999999931
100
AcDbArc
 50
289.07704
 51
349.645823
  0
ARC
  5
2DF
102
{ACAD_REACTORS
330
5A1
102
}
330
1F
100
AcDbEntity
  8
LC-002-002-----0
 62
     7
370
    25
100
AcDbCircle
 10
699.338618
 20
2261.994087
 30
0.0
 40
3.00000000000037
100
AcDbArc
 50
109.055448
 51
180.0
  0
ARC
  5
2E0
102
{ACAD_REACTORS
330
5A1
102
}
330
1F
100
AcDbEntity
  8
LC-002-002-----0
 62
     7
370
    25
100
AcDbCircle
 10
707.836755
 20
2279.559205
 30
0.0
 40
1.999999999999766
100
AcDbArc
 50
334.152631
 51
360.0
  0
ARC
  5
2E1
102
{ACAD_REACTORS
330
5A1
102
}
330
1F
100
AcDbEntity
  8
LC-002-002-----0
 62
     7
370
    25
100
AcDbCircle
 10
704.236822
 20
2281.302903
 30
0.0
 40
5.999999999999909
100
AcDbArc
 50
286.283517
 51
334.155028
  0
ARC
  5
2E2
102
{ACAD_REACTORS
330
5A1
102
}
330
1F
100
AcDbEntity
  8
LC-002-002-----0
 62
     7
370
    25
100
AcDbCircle
 10
707.040881
 20
2271.704087
 30
0.0
 40
4.000000000000306
100
AcDbArc
 50
106.281751
 51
169.647048
  0
LINE
  5
2E3
102
{ACAD_REACTORS
330
5A1
102
}
330
1F
100
AcDbEntity
  8
LC-002-002-----0
 62
     7
370
    25
100
AcDbLine
 10
619.338618
 20
2318.905131
 30
0.0
 11
619.338618
 21
2322.905131
 31
0.0
  0
LINE
  5
2E4
102
{ACAD_REACTORS
330
5A1
102
}
330
1F
100
AcDbEntity
  8
LC-002-002-----0
 62
     7
370
    25
100
AcDbLine
 10
631.589228
 20
2287.092225
 30
0.0
 11
629.839253
 21
2288.102573
 31
0.0
  0
LINE
  5
2E5
102
{ACAD_REACTORS
330
5A1
102
}
330
1F
100
AcDbEntity
  8
LC-002-002-----0
 62
     7
370
    25
100
AcDbLine
 10
638.84048
 20
2279.559205
 30
0.0
 11
638.84048
 21
2280.26245
 31
0.0
  0
LINE
  5
2E6
102
{ACAD_REACTORS
330
5A1
102
}
330
1F
100
AcDbEntity
  8
LC-002-002-----0
 62
     7
370
    25
100
AcDbLine
 10
636.838618
 20
2282.76245
 30
0.0
 11
636.838618
 21
2280.26245
 31
0.0
  0
LINE
  5
2E7
102
{ACAD_REACTORS
330
5A1
102
}
330
1F
100
AcDbEntity
  8
LC-002-002-----0
 62
     7
370
    25
100
AcDbLine
 10
626.838618
 20
2293.299092
 30
0.0
 11
626.838618
 21
2308.76245
 31
0.0
  0
LINE
  5
2E8
102
{ACAD_REACTORS
330
5A1
102
}
330
1F
100
AcDbEntity
  8
LC-002-002-----0
 62
     7
370
    25
100
AcDbLine
 10
646.049679
 20
2269.804069
 30
0.0
 11
645.571232
 21
2272.422933
 31
0.0
  0
LINE
  5
2E9
102
{ACAD_REACTORS
330
5A1
102
}
330
1F
100
AcDbEntity
  8
LC-002-002-----0
 62
     7
370
    25
100
AcDbLine
 10
619.338618
 20
2318.444908
 30
0.0
 11
619.338618
 21
2318.905131
 31
0.0
  0
ARC
  5
2EA
102
{ACAD_REACTORS
330
5A1
102
}
330
1F
100
AcDbEntity
  8
LC-002-002-----0
 62
     7
370
    25
100
AcDbCircle
 10
622.838618
 20
2308.76245
 30
0.0
 40
4.0
100
AcDbArc
 50
0.0
 51
75.507853
  0
ARC
  5
2EB
102
{ACAD_REACTORS
330
5A1
102
}
330
1F
100
AcDbEntity
  8
LC-002-002-----0
 62
     7
370
    25
100
AcDbCircle
 10
625.338618
 20
2318.444908
 30
0.0
 40
6.0
100
AcDbArc
 50
180.0
 51
255.530548
  0
ARC
  5
2EC
102
{ACAD_REACTORS
330
5A1
102
}
330
1F
100
AcDbEntity
  8
LC-002-002-----0
 62
     7
370
    25
100
AcDbCircle
 10
632.838618
 20
2293.299092
 30
0.0
 40
6.0
100
AcDbArc
 50
180.0
 51
240.011524
  0
ARC
  5
2ED
102
{ACAD_REACTORS
330
5A1
102
}
330
1F
100
AcDbEntity
  8
LC-002-002-----0
 62
     7
370
    25
100
AcDbCircle
 10
629.088618
 20
2282.76245
 30
0.0
 40
5.000000000000132
100
AcDbArc
 50
7.927775
 51
59.983847
  0
ARC
  5
2EE
102
{ACAD_REACTORS
330
5A1
102
}
330
1F
100
AcDbEntity
  8
LC-002-002-----0
 62
     7
370
    25
100
AcDbCircle
 10
634.83318
 20
2283.56245
 30
0.0
 40
0.799999999999944
100
AcDbArc
 50
187.937394
 51
270.0
  0
ARC
  5
2EF
102
{ACAD_REACTORS
330
5A1
102
}
330
1F
100
AcDbEntity
  8
LC-002-002-----0
 62
     7
370
    25
100
AcDbCircle
 10
652.443843
 20
2270.97226
 30
0.0
 40
6.499999999999973
100
AcDbArc
 50
190.354177
 51
250.92296
  0
ARC
  5
2F0
102
{ACAD_REACTORS
330
5A1
102
}
330
1F
100
AcDbEntity
  8
LC-002-002-----0
 62
     7
370
    25
100
AcDbCircle
 10
649.338618
 20
2261.994087
 30
0.0
 40
2.999999995699682
100
AcDbArc
 50
0.0
 51
70.944552
  0
ARC
  5
2F1
102
{ACAD_REACTORS
330
5A1
102
}
330
1F
100
AcDbEntity
  8
LC-002-002-----0
 62
     7
370
    25
100
AcDbCircle
 10
640.84048
 20
2279.559205
 30
0.0
 40
1.999999999999773
100
AcDbArc
 50
180.0
 51
205.847369
  0
ARC
  5
2F2
102
{ACAD_REACTORS
330
5A1
102
}
330
1F
100
AcDbEntity
  8
LC-002-002-----0
 62
     7
370
    25
100
AcDbCircle
 10
644.440414
 20
2281.302903
 30
0.0
 40
6.000000000000001
100
AcDbArc
 50
205.844972
 51
253.716483
  0
ARC
  5
2F3
102
{ACAD_REACTORS
330
5A1
102
}
330
1F
100
AcDbEntity
  8
LC-002-002-----0
 62
     7
370
    25
100
AcDbCircle
 10
641.636355
 20
2271.704087
 30
0.0
 40
4.00000000000002
100
AcDbArc
 50
10.352952
 51
73.718249
  0
ARC
  5
2F4
102
{ACAD_REACTORS
330
5A1
102
}
330
1F
100
AcDbEntity
  8
LC-002-002-----0
 62
     7
370
    25
100
AcDbCircle
 10
674.338618
 20
2248.302903
 30
0.0
 40
27.70479324130015
100
AcDbArc
 50
145.394244
 51
34.605756
  0
LINE
  5
2F5
102
{ACAD_REACTORS
330
59C
102
}
330
1F
100
AcDbEntity
  8
LC-002-002-----0
 62
     7
370
    25
100
AcDbLine
 10
1019.018608
 20
2222.502903
 30
0.0
 11
1019.018608
 21
2221.348127
 31
0.0
  0
LINE
  5
2F6
102
{ACAD_REACTORS
330
5A1
102
}
330
1F
100
AcDbEntity
  8
LC-002-002-----0
 62
     7
370
    25
100
AcDbLine
 10
636.838618
 20
2282.76245
 30
0.0
 11
634.83318
 21
2282.76245
 31
0.0
  0
LINE
  5
2F7
102
{ACAD_REACTORS
330
5A1
102
}
330
1F
100
AcDbEntity
  8
LC-002-002-----0
 62
     7
370
    25
100
AcDbLine
 10
638.84048
 20
2280.26245
 30
0.0
 11
636.838618
 21
2280.26245
 31
0.0
  0
LINE
  5
2F8
102
{ACAD_REACTORS
330
59D
102
}
330
1F
100
AcDbEntity
  8
LC-002-002-----0
 62
     7
370
    25
100
AcDbLine
 10
1034.922329
 20
2282.76245
 30
0.0
 11
1032.917365
 21
2282.76245
 31
0.0
  0
LINE
  5
2F9
102
{ACAD_REACTORS
330
59D
102
}
330
1F
100
AcDbEntity
  8
LC-002-002-----0
 62
     7
370
    25
100
AcDbLine
 10
1036.924192
 20
2280.26245
 30
0.0
 11
1034.922329
 21
2280.26245
 31
0.0
  0
LINE
  5
2FA
102
{ACAD_REACTORS
330
59D
102
}
330
1F
100
AcDbEntity
  8
LC-002-002-----0
 62
     7
370
    25
100
AcDbLine
 10
1017.422329
 20
2318.905131
 30
0.0
 11
1017.422329
 21
2322.905131
 31
0.0
  0
LINE
  5
2FB
102
{ACAD_REACTORS
330
59D
102
}
330
1F
100
AcDbEntity
  8
LC-002-002-----0
 62
     7
370
    25
100
AcDbLine
 10
1029.672939
 20
2287.092224
 30
0.0
 11
1027.922964
 21
2288.102573
 31
0.0
  0
LINE
  5
2FC
102
{ACAD_REACTORS
330
59D
102
}
330
1F
100
AcDbEntity
  8
LC-002-002-----0
 62
     7
370
    25
100
AcDbLine
 10
1024.922329
 20
2293.299092
 30
0.0
 11
1024.922329
 21
2308.76245
 31
0.0
  0
ARC
  5
2FD
102
{ACAD_REACTORS
330
59D
102
}
330
1F
100
AcDbEntity
  8
LC-002-002-----0
 62
     7
370
    25
100
AcDbCircle
 10
1020.922329
 20
2308.76245
 30
0.0
 40
3.999999999999773
100
AcDbArc
 50
0.0
 51
75.507853
  0
ARC
  5
2FE
102
{ACAD_REACTORS
330
59D
102
}
330
1F
100
AcDbEntity
  8
LC-002-002-----0
 62
     7
370
    25
100
AcDbCircle
 10
1023.422329
 20
2318.444908
 30
0.0
 40
5.999999999999659
100
AcDbArc
 50
180.0
 51
255.530548
  0
ARC
  5
2FF
102
{ACAD_REACTORS
330
59D
102
}
330
1F
100
AcDbEntity
  8
LC-002-002-----0
 62
     7
370
    25
100
AcDbCircle
 10
1030.922329
 20
2293.299092
 30
0.0
 40
6.0
100
AcDbArc
 50
180.0
 51
240.011524
  0
ARC
  5
300
102
{ACAD_REACTORS
330
59D
102
}
330
1F
100
AcDbEntity
  8
LC-002-002-----0
 62
     7
370
    25
100
AcDbCircle
 10
1027.172329
 20
2282.76245
 30
0.0
 40
4.999999999999969
100
AcDbArc
 50
7.927775
 51
59.983847
  0
LINE
  5
301
102
{ACAD_REACTORS
330
5A2
102
}
330
1F
100
AcDbEntity
  8
LC-002-002-----0
 62
     7
370
    50
100
AcDbLine
 10
1282.77898
 20
2569.96
 30
0.0
 11
1353.017321
 21
2569.96
 31
0.0
  0
LINE
  5
302
102
{ACAD_REACTORS
330
5A2
102
}
330
1F
100
AcDbEntity
  8
LC-002-002-----0
 62
     7
370
    50
100
AcDbLine
 10
1282.77898
 20
2569.96
 30
0.0
 11
1282.77898
 21
2531.96
 31
0.0
  0
LINE
  5
303
102
{ACAD_REACTORS
330
5A2
102
}
330
1F
100
AcDbEntity
  8
LC-002-002-----0
 62
     7
370
    50
100
AcDbLine
 10
1282.77898
 20
2531.96
 30
0.0
 11
1353.017321
 21
2531.96
 31
0.0
  0
LINE
  5
304
102
{ACAD_REACTORS
330
5A2
102
}
330
1F
100
AcDbEntity
  8
LC-002-002-----0
 62
     7
370
    25
100
AcDbLine
 10
1353.017321
 20
2569.96
 30
0.0
 11
1357.530298
 21
2549.350234
 31
0.0
  0
LINE
  5
305
102
{ACAD_REACTORS
330
5A2
102
}
330
1F
100
AcDbEntity
  8
LC-002-002-----0
 62
     7
370
    25
100
AcDbLine
 10
1357.530298
 20
2549.350234
 30
0.0
 11
1353.017321
 21
2531.96
 31
0.0
  0
LINE
  5
306
102
{ACAD_REACTORS
330
5A2
102
}
330
1F
100
AcDbEntity
  8
LC-002-002-----0
 62
     7
370
    50
100
AcDbLine
 10
1292.77898
 20
2531.96
 30
0.0
 11
1292.77898
 21
2402.335673
 31
0.0
  0
LINE
  5
307
102
{ACAD_REACTORS
330
5A2
102
}
330
1F
100
AcDbEntity
  8
LC-002-002-----0
 62
     7
370
    50
100
AcDbLine
 10
1273.77898
 20
2531.96
 30
0.0
 11
1273.77898
 21
2402.335673
 31
0.0
  0
LINE
  5
308
102
{ACAD_REACTORS
330
5A2
102
}
330
1F
100
AcDbEntity
  8
LC-002-002-----0
 62
     7
370
    50
100
AcDbLine
 10
1273.77898
 20
2531.96
 30
0.0
 11
1292.77898
 21
2531.96
 31
0.0
  0
LINE
  5
309
102
{ACAD_REACTORS
330
5A2
102
}
330
1F
100
AcDbEntity
  8
LC-002-002-----0
 62
     7
370
    25
100
AcDbLine
 10
1273.77898
 20
2402.335673
 30
0.0
 11
1285.657426
 21
2398.022016
 31
0.0
  0
LINE
  5
30A
102
{ACAD_REACTORS
330
5A2
102
}
330
1F
100
AcDbEntity
  8
LC-002-002-----0
 62
     7
370
    25
100
AcDbLine
 10
1285.657426
 20
2398.022016
 30
0.0
 11
1292.77898
 21
2402.335673
 31
0.0
  0
LINE
  5
30B
102
{ACAD_REACTORS
330
5A2
102
}
330
1F
100
AcDbEntity
  8
LC-002-002-----0
 62
     7
370
    50
100
AcDbLine
 10
464.57898
 20
2569.96
 30
0.0
 11
394.340638
 21
2569.96
 31
0.0
  0
LINE
  5
30C
102
{ACAD_REACTORS
330
5A2
102
}
330
1F
100
AcDbEntity
  8
LC-002-002-----0
 62
     7
370
    25
100
AcDbLine
 10
394.340638
 20
2569.96
 30
0.0
 11
389.827661
 21
2549.350234
 31
0.0
  0
LINE
  5
30D
102
{ACAD_REACTORS
330
5A2
102
}
330
1F
100
AcDbEntity
  8
LC-002-002-----0
 62
     7
370
    25
100
AcDbLine
 10
389.827661
 20
2549.350234
 30
0.0
 11
394.340638
 21
2531.96
 31
0.0
  0
LINE
  5
30E
102
{ACAD_REACTORS
330
5A2
102
}
330
1F
100
AcDbEntity
  8
LC-002-002-----0
 62
     7
370
    50
100
AcDbLine
 10
464.57898
 20
2531.96
 30
0.0
 11
394.340638
 21
2531.96
 31
0.0
  0
LINE
  5
30F
102
{ACAD_REACTORS
330
5A2
102
}
330
1F
100
AcDbEntity
  8
LC-002-002-----0
 62
     7
370
    50
100
AcDbLine
 10
464.57898
 20
2569.96
 30
0.0
 11
464.57898
 21
2531.96
 31
0.0
  0
INSERT
  5
31A
102
{ACAD_REACTORS
330
5A2
102
}
330
1F
100
AcDbEntity
  8
LC-007-005-----0
 62
     7
370
    25
100
AcDbBlockReference
  2
*X16
 10
0.0
 20
0.0
 30
0.0
  0
LINE
  5
31B
102
{ACAD_REACTORS
330
5A2
102
}
330
1F
100
AcDbEntity
  8
LC-002-002-----0
 62
     7
370
    50
100
AcDbLine
 10
454.57898
 20
2531.96
 30
0.0
 11
454.57898
 21
2402.335673
 31
0.0
  0
LINE
  5
31C
102
{ACAD_REACTORS
330
5A2
102
}
330
1F
100
AcDbEntity
  8
LC-002-002-----0
 62
     7
370
    25
100
AcDbLine
 10
461.700533
 20
2398.022016
 30
0.0
 11
454.57898
 21
2402.335673
 31
0.0
  0
LINE
  5
31D
102
{ACAD_REACTORS
330
5A2
102
}
330
1F
100
AcDbEntity
  8
LC-002-002-----0
 62
     7
370
    25
100
AcDbLine
 10
473.57898
 20
2402.335673
 30
0.0
 11
461.700533
 21
2398.022016
 31
0.0
  0
LINE
  5
31E
102
{ACAD_REACTORS
330
5A2
102
}
330
1F
100
AcDbEntity
  8
LC-002-002-----0
 62
     7
370
    50
100
AcDbLine
 10
473.57898
 20
2531.96
 30
0.0
 11
473.57898
 21
2402.335673
 31
0.0
  0
LINE
  5
31F
102
{ACAD_REACTORS
330
5A2
102
}
330
1F
100
AcDbEntity
  8
LC-002-002-----0
 62
     7
370
    50
100
AcDbLine
 10
473.57898
 20
2531.96
 30
0.0
 11
454.57898
 21
2531.96
 31
0.0
  0
LINE
  5
320
102
{ACAD_REACTORS
330
5A5
102
}
330
1F
100
AcDbEntity
  8
LC-002-002-----0
 62
     7
370
    25
100
AcDbLine
 10
1502.851576
 20
1951.625419
 30
0.0
 11
1503.62212
 21
1953.105621
 31
0.0
  0
LINE
  5
321
102
{ACAD_REACTORS
330
5A5
102
}
330
1F
100
AcDbEntity
  8
LC-002-002-----0
 62
     7
370
    25
100
AcDbLine
 10
1504.392396
 20
1951.625307
 30
0.0
 11
1505.163054
 21
1953.105727
 31
0.0
  0
LINE
  5
322
102
{ACAD_REACTORS
330
5A5
102
}
330
1F
100
AcDbEntity
  8
LC-002-002-----0
 62
     7
370
    25
100
AcDbLine
 10
1505.933333
 20
1951.625419
 30
0.0
 11
1506.703765
 21
1953.105406
 31
0.0
  0
LINE
  5
323
102
{ACAD_REACTORS
330
5A5
102
}
330
1F
100
AcDbEntity
  8
LC-002-002-----0
 62
     7
370
    25
100
AcDbLine
 10
1507.474211
 20
1951.625419
 30
0.0
 11
1508.244644
 21
1953.105406
 31
0.0
  0
LINE
  5
324
102
{ACAD_REACTORS
330
5A5
102
}
330
1F
100
AcDbEntity
  8
LC-002-002-----0
 62
     7
370
    25
100
AcDbLine
 10
1509.01509
 20
1951.625419
 30
0.0
 11
1509.785522
 21
1953.105406
 31
0.0
  0
LINE
  5
325
102
{ACAD_REACTORS
330
5A5
102
}
330
1F
100
AcDbEntity
  8
LC-002-002-----0
 62
     7
370
    25
100
AcDbLine
 10
1510.555968
 20
1951.625419
 30
0.0
 11
1511.326401
 21
1953.105406
 31
0.0
  0
LINE
  5
326
102
{ACAD_REACTORS
330
5A5
102
}
330
1F
100
AcDbEntity
  8
LC-002-002-----0
 62
     7
370
    25
100
AcDbLine
 10
1512.096847
 20
1951.625419
 30
0.0
 11
1512.867279
 21
1953.105406
 31
0.0
  0
LINE
  5
327
102
{ACAD_REACTORS
330
5A5
102
}
330
1F
100
AcDbEntity
  8
LC-002-002-----0
 62
     7
370
    25
100
AcDbLine
 10
1514.867305
 20
1952.391489
 30
0.0
 11
1517.981054
 21
1955.505238
 31
0.0
  0
LINE
  5
328
102
{ACAD_REACTORS
330
5A5
102
}
330
1F
100
AcDbEntity
  8
LC-002-002-----0
 62
     7
370
    25
100
AcDbLine
 10
1501.081029
 20
1953.105213
 30
0.0
 11
1501.081029
 21
1997.905213
 31
0.0
  0
LINE
  5
329
102
{ACAD_REACTORS
330
5A5
102
}
330
1F
100
AcDbEntity
  8
LC-002-002-----0
 62
     7
370
    25
100
AcDbLine
 10
1519.08115
 20
1947.60012
 30
0.0
 11
1521.081054
 21
1949.600024
 31
0.0
  0
LINE
  5
32A
102
{ACAD_REACTORS
330
5A5
102
}
330
1F
100
AcDbEntity
  8
LC-002-002-----0
 62
     7
370
    25
100
AcDbLine
 10
1517.981029
 20
1995.505213
 30
0.0
 11
1521.081029
 21
1995.505213
 31
0.0
  0
LINE
  5
32B
102
{ACAD_REACTORS
330
5A5
102
}
330
1F
100
AcDbEntity
  8
LC-002-002-----0
 62
     7
370
    25
100
AcDbLine
 10
1513.376236
 20
1923.1
 30
0.0
 11
1513.376236
 21
1925.6
 31
0.0
  0
LINE
  5
32C
102
{ACAD_REACTORS
330
5A5
102
}
330
1F
100
AcDbEntity
  8
LC-002-002-----0
 62
     7
370
    25
100
AcDbLine
 10
1514.126236
 20
1922.1
 30
0.0
 11
1514.126236
 21
1922.35
 31
0.0
  0
LINE
  5
32D
102
{ACAD_REACTORS
330
5A5
102
}
330
1F
100
AcDbEntity
  8
LC-002-002-----0
 62
     7
370
    25
100
AcDbLine
 10
1514.867305
 20
1952.391489
 30
0.0
 11
1514.867305
 21
1998.618938
 31
0.0
  0
LINE
  5
32E
102
{ACAD_REACTORS
330
5A5
102
}
330
1F
100
AcDbEntity
  8
LC-002-002-----0
 62
     7
370
    25
100
AcDbLine
 10
1515.281029
 20
1922.1
 30
0.0
 11
1515.281029
 21
1908.6
 31
0.0
  0
LINE
  5
32F
102
{ACAD_REACTORS
330
5A5
102
}
330
1F
100
AcDbEntity
  8
LC-002-002-----0
 62
     7
370
    25
100
AcDbLine
 10
1518.681029
 20
1927.6
 30
0.0
 11
1518.681029
 21
1927.386149
 31
0.0
  0
LINE
  5
330
102
{ACAD_REACTORS
330
5A5
102
}
330
1F
100
AcDbEntity
  8
LC-002-002-----0
 62
     7
370
    25
100
AcDbLine
 10
1519.081029
 20
1927.6
 30
0.0
 11
1519.081029
 21
1947.6
 31
0.0
  0
LINE
  5
331
102
{ACAD_REACTORS
330
5A5
102
}
330
1F
100
AcDbEntity
  8
LC-002-002-----0
 62
     7
370
    25
100
AcDbLine
 10
1521.081029
 20
1849.771739
 30
0.0
 11
1521.081029
 21
1906.6
 31
0.0
  0
LINE
  5
332
102
{ACAD_REACTORS
330
5A5
102
}
330
1F
100
AcDbEntity
  8
LC-002-002-----0
 62
     7
370
    25
100
AcDbLine
 10
1521.081029
 20
1955.000598
 30
0.0
 11
1521.081029
 21
1949.6
 31
0.0
  0
LINE
  5
333
102
{ACAD_REACTORS
330
5A5
102
}
330
1F
100
AcDbEntity
  8
LC-002-002-----0
 62
     7
370
    25
100
AcDbLine
 10
1518.681117
 20
1927.386195
 30
0.0
 11
1517.201235
 21
1926.615817
 31
0.0
  0
LINE
  5
334
102
{ACAD_REACTORS
330
5A5
102
}
330
1F
100
AcDbEntity
  8
LC-002-002-----0
 62
     7
370
    25
100
AcDbLine
 10
1518.681117
 20
1925.845317
 30
0.0
 11
1518.209869
 21
1925.6
 31
0.0
  0
LINE
  5
335
102
{ACAD_REACTORS
330
5A5
102
}
330
1F
100
AcDbEntity
  8
LC-002-002-----0
 62
     7
370
    25
100
AcDbLine
 10
1561.081029
 20
1849.771739
 30
0.0
 11
1561.081029
 21
1906.6
 31
0.0
  0
LINE
  5
336
102
{ACAD_REACTORS
330
5A5
102
}
330
1F
100
AcDbEntity
  8
LC-002-002-----0
 62
     7
370
    25
100
AcDbLine
 10
1561.081029
 20
1955.505213
 30
0.0
 11
1561.081029
 21
1949.6
 31
0.0
  0
LINE
  5
337
102
{ACAD_REACTORS
330
5A5
102
}
330
1F
100
AcDbEntity
  8
LC-002-002-----0
 62
     7
370
    25
100
AcDbLine
 10
1563.081029
 20
1927.6
 30
0.0
 11
1563.081029
 21
1947.6
 31
0.0
  0
LINE
  5
338
102
{ACAD_REACTORS
330
5A5
102
}
330
1F
100
AcDbEntity
  8
LC-002-002-----0
 62
     7
370
    25
100
AcDbLine
 10
1563.481029
 20
1927.6
 30
0.0
 11
1563.481029
 21
1927.386149
 31
0.0
  0
LINE
  5
339
102
{ACAD_REACTORS
330
5A5
102
}
330
1F
100
AcDbEntity
  8
LC-002-002-----0
 62
     7
370
    25
100
AcDbLine
 10
1568.035822
 20
1922.349999
 30
0.0
 11
1568.785822
 21
1923.099999
 31
0.0
  0
LINE
  5
33A
102
{ACAD_REACTORS
330
5A5
102
}
330
1F
100
AcDbEntity
  8
LC-002-002-----0
 62
     7
370
    25
100
AcDbLine
 10
1564.960936
 20
1926.615661
 30
0.0
 11
1563.480836
 21
1925.84517
 31
0.0
  0
LINE
  5
33B
102
{ACAD_REACTORS
330
5A5
102
}
330
1F
100
AcDbEntity
  8
LC-002-002-----0
 62
     7
370
    25
100
AcDbLine
 10
1517.981029
 20
1955.505213
 30
0.0
 11
1520.576414
 21
1955.505213
 31
0.0
  0
LINE
  5
33C
102
{ACAD_REACTORS
330
5A5
102
}
330
1F
100
AcDbEntity
  8
LC-002-002-----0
 62
     7
370
    25
100
AcDbLine
 10
1501.081029
 20
1953.105213
 30
0.0
 11
1502.081029
 21
1953.105213
 31
0.0
  0
LINE
  5
33D
102
{ACAD_REACTORS
330
5A5
102
}
330
1F
100
AcDbEntity
  8
LC-002-002-----0
 62
     7
370
    25
100
AcDbLine
 10
1512.867179
 20
1953.105213
 30
0.0
 11
1514.867179
 21
1953.105213
 31
0.0
  0
LINE
  5
33E
102
{ACAD_REACTORS
330
5A5
102
}
330
1F
100
AcDbEntity
  8
LC-002-002-----0
 62
     7
370
    25
100
AcDbLine
 10
1566.881029
 20
1922.1
 30
0.0
 11
1566.881029
 21
1908.6
 31
0.0
  0
LINE
  5
33F
102
{ACAD_REACTORS
330
5A5
102
}
330
1F
100
AcDbEntity
  8
LC-002-002-----0
 62
     7
370
    25
100
AcDbLine
 10
1568.035823
 20
1922.1
 30
0.0
 11
1568.035823
 21
1922.35
 31
0.0
  0
LINE
  5
340
102
{ACAD_REACTORS
330
5A5
102
}
330
1F
100
AcDbEntity
  8
LC-002-002-----0
 62
     7
370
    25
100
AcDbLine
 10
1568.785823
 20
1923.1
 30
0.0
 11
1568.785823
 21
1925.6
 31
0.0
  0
LINE
  5
341
102
{ACAD_REACTORS
330
5A5
102
}
330
1F
100
AcDbEntity
  8
LC-002-002-----0
 62
     7
370
    25
100
AcDbLine
 10
1518.681029
 20
1927.6
 30
0.0
 11
1519.081029
 21
1927.6
 31
0.0
  0
LINE
  5
342
102
{ACAD_REACTORS
330
5A5
102
}
330
1F
100
AcDbEntity
  8
LC-002-002-----0
 62
     7
370
    25
100
AcDbLine
 10
1513.376236
 20
1925.6
 30
0.0
 11
1568.785823
 21
1925.6
 31
0.0
  0
LINE
  5
343
102
{ACAD_REACTORS
330
5A5
102
}
330
1F
100
AcDbEntity
  8
LC-002-002-----0
 62
     7
370
    25
100
AcDbLine
 10
1568.035823
 20
1922.1
 30
0.0
 11
1514.126236
 21
1922.1
 31
0.0
  0
LINE
  5
344
102
{ACAD_REACTORS
330
5A5
102
}
330
1F
100
AcDbEntity
  8
LC-002-002-----0
 62
     7
370
    25
100
AcDbLine
 10
1564.881149
 20
1906.6
 30
0.0
 11
1517.281029
 21
1906.6
 31
0.0
  0
LINE
  5
345
102
{ACAD_REACTORS
330
5A5
102
}
330
1F
100
AcDbEntity
  8
LC-002-002-----0
 62
     7
370
    25
100
AcDbLine
 10
1563.480942
 20
1927.386195
 30
0.0
 11
1564.960824
 21
1926.615817
 31
0.0
  0
LINE
  5
346
102
{ACAD_REACTORS
330
5A5
102
}
330
1F
100
AcDbEntity
  8
LC-002-002-----0
 62
     7
370
    25
100
AcDbLine
 10
1563.480942
 20
1925.845317
 30
0.0
 11
1563.95219
 21
1925.6
 31
0.0
  0
LINE
  5
347
102
{ACAD_REACTORS
330
5A5
102
}
330
1F
100
AcDbEntity
  8
LC-002-002-----0
 62
     7
370
    25
100
AcDbLine
 10
1517.201123
 20
1926.615661
 30
0.0
 11
1518.681222
 21
1925.84517
 31
0.0
  0
LINE
  5
348
102
{ACAD_REACTORS
330
5A5
102
}
330
1F
100
AcDbEntity
  8
LC-002-002-----0
 62
     7
370
    25
100
AcDbLine
 10
1514.867305
 20
1998.618938
 30
0.0
 11
1517.981054
 21
1995.505189
 31
0.0
  0
LINE
  5
349
102
{ACAD_REACTORS
330
5A5
102
}
330
1F
100
AcDbEntity
  8
LC-002-002-----0
 62
     7
370
    25
100
AcDbLine
 10
1563.080909
 20
1947.60012
 30
0.0
 11
1561.080972
 21
1949.600058
 31
0.0
  0
LINE
  5
34A
102
{ACAD_REACTORS
330
5A5
102
}
330
1F
100
AcDbEntity
  8
LC-002-002-----0
 62
     7
370
    25
100
AcDbLine
 10
1514.126237
 20
1922.349999
 30
0.0
 11
1513.376237
 21
1923.099999
 31
0.0
  0
LINE
  5
34B
102
{ACAD_REACTORS
330
5A5
102
}
330
1F
100
AcDbEntity
  8
LC-002-002-----0
 62
     7
370
    25
100
AcDbLine
 10
1511.326255
 20
1953.105301
 30
0.0
 11
1512.096691
 21
1951.625307
 31
0.0
  0
LINE
  5
34C
102
{ACAD_REACTORS
330
5A5
102
}
330
1F
100
AcDbEntity
  8
LC-002-002-----0
 62
     7
370
    25
100
AcDbLine
 10
1509.785376
 20
1953.105301
 30
0.0
 11
1510.555812
 21
1951.625307
 31
0.0
  0
LINE
  5
34D
102
{ACAD_REACTORS
330
5A5
102
}
330
1F
100
AcDbEntity
  8
LC-002-002-----0
 62
     7
370
    25
100
AcDbLine
 10
1508.244498
 20
1953.105301
 30
0.0
 11
1509.014934
 21
1951.625307
 31
0.0
  0
LINE
  5
34E
102
{ACAD_REACTORS
330
5A5
102
}
330
1F
100
AcDbEntity
  8
LC-002-002-----0
 62
     7
370
    25
100
AcDbLine
 10
1506.703619
 20
1953.105301
 30
0.0
 11
1507.474055
 21
1951.625307
 31
0.0
  0
LINE
  5
34F
102
{ACAD_REACTORS
330
5A5
102
}
330
1F
100
AcDbEntity
  8
LC-002-002-----0
 62
     7
370
    25
100
AcDbLine
 10
1505.162574
 20
1953.105621
 30
0.0
 11
1505.933177
 21
1951.625307
 31
0.0
  0
LINE
  5
350
102
{ACAD_REACTORS
330
5A5
102
}
330
1F
100
AcDbEntity
  8
LC-002-002-----0
 62
     7
370
    25
100
AcDbLine
 10
1503.621641
 20
1953.105727
 30
0.0
 11
1504.39224
 21
1951.625419
 31
0.0
  0
LINE
  5
351
102
{ACAD_REACTORS
330
5A5
102
}
330
1F
100
AcDbEntity
  8
LC-002-002-----0
 62
     7
370
    25
100
AcDbLine
 10
1502.080817
 20
1953.105621
 30
0.0
 11
1502.85142
 21
1951.625307
 31
0.0
  0
ARC
  5
352
102
{ACAD_REACTORS
330
5A5
102
}
330
1F
100
AcDbEntity
  8
LC-002-002-----0
 62
     7
370
    25
100
AcDbCircle
 10
1521.081029
 20
1955.505213
 30
0.0
 40
39.99972357249999
100
AcDbArc
 50
0.0
 51
90.0
  0
ARC
  5
353
102
{ACAD_REACTORS
330
5A5
102
}
330
1F
100
AcDbEntity
  8
LC-002-002-----0
 62
     7
370
    25
100
AcDbCircle
 10
1517.281029
 20
1908.6
 30
0.0
 40
2.0
100
AcDbArc
 50
180.0
 51
270.0
  0
ARC
  5
354
102
{ACAD_REACTORS
330
5A5
102
}
330
1F
100
AcDbEntity
  8
LC-002-002-----0
 62
     7
370
    25
100
AcDbCircle
 10
1564.881029
 20
1908.6
 30
0.0
 40
2.0
100
AcDbArc
 50
270.0
 51
360.0
  0
LINE
  5
355
102
{ACAD_REACTORS
330
5A5
102
}
330
1F
100
AcDbEntity
  8
LC-002-002-----0
 62
     7
370
    25
100
AcDbLine
 10
1520.576414
 20
1955.505213
 30
0.0
 11
1520.934583
 21
1955.358767
 31
0.0
  0
LINE
  5
356
102
{ACAD_REACTORS
330
5A5
102
}
330
1F
100
AcDbEntity
  8
LC-002-002-----0
 62
     7
370
    25
100
AcDbLine
 10
1520.934583
 20
1955.358767
 30
0.0
 11
1521.081029
 21
1955.000598
 31
0.0
  0
LINE
  5
357
102
{ACAD_REACTORS
330
5A5
102
}
330
1F
100
AcDbEntity
  8
LC-002-002-----0
 62
     7
370
    25
100
AcDbLine
 10
1502.851576
 20
1999.385008
 30
0.0
 11
1503.62212
 21
1997.904805
 31
0.0
  0
LINE
  5
358
102
{ACAD_REACTORS
330
5A5
102
}
330
1F
100
AcDbEntity
  8
LC-002-002-----0
 62
     7
370
    25
100
AcDbLine
 10
1504.392396
 20
1999.38512
 30
0.0
 11
1505.163054
 21
1997.9047
 31
0.0
  0
LINE
  5
359
102
{ACAD_REACTORS
330
5A5
102
}
330
1F
100
AcDbEntity
  8
LC-002-002-----0
 62
     7
370
    25
100
AcDbLine
 10
1505.933333
 20
1999.385008
 30
0.0
 11
1506.703765
 21
1997.90502
 31
0.0
  0
LINE
  5
35A
102
{ACAD_REACTORS
330
5A5
102
}
330
1F
100
AcDbEntity
  8
LC-002-002-----0
 62
     7
370
    25
100
AcDbLine
 10
1507.474211
 20
1999.385008
 30
0.0
 11
1508.244644
 21
1997.90502
 31
0.0
  0
LINE
  5
35B
102
{ACAD_REACTORS
330
5A5
102
}
330
1F
100
AcDbEntity
  8
LC-002-002-----0
 62
     7
370
    25
100
AcDbLine
 10
1509.01509
 20
1999.385008
 30
0.0
 11
1509.785522
 21
1997.90502
 31
0.0
  0
LINE
  5
35C
102
{ACAD_REACTORS
330
5A5
102
}
330
1F
100
AcDbEntity
  8
LC-002-002-----0
 62
     7
370
    25
100
AcDbLine
 10
1510.555968
 20
1999.385008
 30
0.0
 11
1511.326401
 21
1997.90502
 31
0.0
  0
LINE
  5
35D
102
{ACAD_REACTORS
330
5A5
102
}
330
1F
100
AcDbEntity
  8
LC-002-002-----0
 62
     7
370
    25
100
AcDbLine
 10
1512.096847
 20
1999.385008
 30
0.0
 11
1512.867279
 21
1997.90502
 31
0.0
  0
LINE
  5
35E
102
{ACAD_REACTORS
330
5A5
102
}
330
1F
100
AcDbEntity
  8
LC-002-002-----0
 62
     7
370
    25
100
AcDbLine
 10
1501.081029
 20
1997.905213
 30
0.0
 11
1502.081029
 21
1997.905213
 31
0.0
  0
LINE
  5
35F
102
{ACAD_REACTORS
330
5A5
102
}
330
1F
100
AcDbEntity
  8
LC-002-002-----0
 62
     7
370
    25
100
AcDbLine
 10
1512.867179
 20
1997.905213
 30
0.0
 11
1514.867179
 21
1997.905213
 31
0.0
  0
LINE
  5
360
102
{ACAD_REACTORS
330
5A5
102
}
330
1F
100
AcDbEntity
  8
LC-002-002-----0
 62
     7
370
    25
100
AcDbLine
 10
1511.326255
 20
1997.905126
 30
0.0
 11
1512.096691
 21
1999.38512
 31
0.0
  0
LINE
  5
361
102
{ACAD_REACTORS
330
5A5
102
}
330
1F
100
AcDbEntity
  8
LC-002-002-----0
 62
     7
370
    25
100
AcDbLine
 10
1509.785376
 20
1997.905126
 30
0.0
 11
1510.555812
 21
1999.38512
 31
0.0
  0
LINE
  5
362
102
{ACAD_REACTORS
330
5A5
102
}
330
1F
100
AcDbEntity
  8
LC-002-002-----0
 62
     7
370
    25
100
AcDbLine
 10
1508.244498
 20
1997.905126
 30
0.0
 11
1509.014934
 21
1999.38512
 31
0.0
  0
LINE
  5
363
102
{ACAD_REACTORS
330
5A5
102
}
330
1F
100
AcDbEntity
  8
LC-002-002-----0
 62
     7
370
    25
100
AcDbLine
 10
1506.703619
 20
1997.905126
 30
0.0
 11
1507.474055
 21
1999.38512
 31
0.0
  0
LINE
  5
364
102
{ACAD_REACTORS
330
5A5
102
}
330
1F
100
AcDbEntity
  8
LC-002-002-----0
 62
     7
370
    25
100
AcDbLine
 10
1505.162574
 20
1997.904805
 30
0.0
 11
1505.933177
 21
1999.38512
 31
0.0
  0
LINE
  5
365
102
{ACAD_REACTORS
330
5A5
102
}
330
1F
100
AcDbEntity
  8
LC-002-002-----0
 62
     7
370
    25
100
AcDbLine
 10
1503.621641
 20
1997.9047
 30
0.0
 11
1504.39224
 21
1999.385008
 31
0.0
  0
LINE
  5
366
102
{ACAD_REACTORS
330
5A5
102
}
330
1F
100
AcDbEntity
  8
LC-002-002-----0
 62
     7
370
    25
100
AcDbLine
 10
1502.080817
 20
1997.904805
 30
0.0
 11
1502.85142
 21
1999.38512
 31
0.0
  0
LINE
  5
367
102
{ACAD_REACTORS
330
5A5
102
}
330
1F
100
AcDbEntity
  8
LC-002-002-----0
 62
     7
370
    25
100
AcDbLine
 10
1564.293416
 20
1922.1
 30
0.0
 11
1564.293416
 21
1908.6
 31
0.0
  0
INSERT
  5
377
102
{ACAD_REACTORS
330
5A5
102
}
330
1F
100
AcDbEntity
  8
LC-002-002-----0
 62
     7
370
    25
100
AcDbBlockReference
  2
POLY5
 10
0.0
 20
0.0
 30
0.0
  0
LINE
  5
378
102
{ACAD_REACTORS
330
5A5
102
}
330
1F
100
AcDbEntity
  8
LC-002-002-----0
 62
     7
370
    25
100
AcDbLine
 10
1541.079577
 20
1922.1
 30
0.0
 11
1541.079577
 21
1908.6
 31
0.0
  0
INSERT
  5
388
102
{ACAD_REACTORS
330
5A5
102
}
330
1F
100
AcDbEntity
  8
LC-002-002-----0
 62
     7
370
    25
100
AcDbBlockReference
  2
POLY6
 10
0.0
 20
0.0
 30
0.0
  0
LINE
  5
389
102
{ACAD_REACTORS
330
5A5
102
}
330
1F
100
AcDbEntity
  8
LC-002-002-----0
 62
     7
370
    25
100
AcDbLine
 10
1517.868535
 20
1908.6
 30
0.0
 11
1517.868535
 21
1922.1
 31
0.0
  0
INSERT
  5
399
102
{ACAD_REACTORS
330
5A5
102
}
330
1F
100
AcDbEntity
  8
LC-002-002-----0
 62
     7
370
    25
100
AcDbBlockReference
  2
POLY7
 10
0.0
 20
0.0
 30
0.0
  0
LINE
  5
39A
102
{ACAD_REACTORS
330
5A4
102
}
330
1F
100
AcDbEntity
  8
LC-002-002-----0
 62
     7
370
    25
100
AcDbLine
 10
1518.681029
 20
1732.1
 30
0.0
 11
1518.681029
 21
1755.6
 31
0.0
  0
LINE
  5
39B
102
{ACAD_REACTORS
330
5A3
102
}
330
1F
100
AcDbEntity
  8
LC-002-002-----0
 62
     7
370
    25
100
AcDbLine
 10
1521.081029
 20
1774.6
 30
0.0
 11
1521.081029
 21
1830.6
 31
0.0
  0
LINE
  5
39C
102
{ACAD_REACTORS
330
5A3
102
}
330
1F
100
AcDbEntity
  8
LC-002-002-----0
 62
     7
370
    25
100
AcDbLine
 10
1561.081029
 20
1774.6
 30
0.0
 11
1561.081029
 21
1830.6
 31
0.0
  0
LINE
  5
39D
102
{ACAD_REACTORS
330
5A4
102
}
330
1F
100
AcDbEntity
  8
LC-002-002-----0
 62
     7
370
    25
100
AcDbLine
 10
1563.481029
 20
1734.053149
 30
0.0
 11
1563.481029
 21
1755.6
 31
0.0
  0
ARC
  5
39E
102
{ACAD_REACTORS
330
5A3
102
}
330
1F
100
AcDbEntity
  8
LC-002-002-----0
 62
     7
370
    25
100
AcDbCircle
 10
1541.081029
 20
1830.6
 30
0.0
 40
20.0
100
AcDbArc
 50
0.0
 51
180.0
  0
LINE
  5
39F
102
{ACAD_REACTORS
330
5A4
102
}
330
1F
100
AcDbEntity
  8
LC-002-002-----0
 62
     7
370
    25
100
AcDbLine
 10
1513.376236
 20
1758.1
 30
0.0
 11
1513.376236
 21
1755.6
 31
0.0
  0
LINE
  5
3A0
102
{ACAD_REACTORS
330
5A4
102
}
330
1F
100
AcDbEntity
  8
LC-002-002-----0
 62
     7
370
    25
100
AcDbLine
 10
1514.126236
 20
1759.1
 30
0.0
 11
1514.126236
 21
1758.85
 31
0.0
  0
LINE
  5
3A1
102
{ACAD_REACTORS
330
5A4
102
}
330
1F
100
AcDbEntity
  8
LC-002-002-----0
 62
     7
370
    25
100
AcDbLine
 10
1515.281029
 20
1759.1
 30
0.0
 11
1515.281029
 21
1772.6
 31
0.0
  0
LINE
  5
3A2
102
{ACAD_REACTORS
330
5A4
102
}
330
1F
100
AcDbEntity
  8
LC-002-002-----0
 62
     7
370
    25
100
AcDbLine
 10
1566.881029
 20
1759.1
 30
0.0
 11
1566.881029
 21
1772.6
 31
0.0
  0
LINE
  5
3A3
102
{ACAD_REACTORS
330
5A4
102
}
330
1F
100
AcDbEntity
  8
LC-002-002-----0
 62
     7
370
    25
100
AcDbLine
 10
1568.035823
 20
1759.1
 30
0.0
 11
1568.035823
 21
1758.85
 31
0.0
  0
LINE
  5
3A4
102
{ACAD_REACTORS
330
5A4
102
}
330
1F
100
AcDbEntity
  8
LC-002-002-----0
 62
     7
370
    25
100
AcDbLine
 10
1568.785823
 20
1758.1
 30
0.0
 11
1568.785823
 21
1755.6
 31
0.0
  0
LINE
  5
3A5
102
{ACAD_REACTORS
330
5A4
102
}
330
1F
100
AcDbEntity
  8
LC-002-002-----0
 62
     7
370
    25
100
AcDbLine
 10
1514.126237
 20
1758.850001
 30
0.0
 11
1513.376237
 21
1758.100001
 31
0.0
  0
LINE
  5
3A6
102
{ACAD_REACTORS
330
5A4
102
}
330
1F
100
AcDbEntity
  8
LC-002-002-----0
 62
     7
370
    25
100
AcDbLine
 10
1564.881029
 20
1774.6
 30
0.0
 11
1517.281029
 21
1774.6
 31
0.0
  0
LINE
  5
3A7
102
{ACAD_REACTORS
330
5A4
102
}
330
1F
100
AcDbEntity
  8
LC-002-002-----0
 62
     7
370
    25
100
AcDbLine
 10
1568.035805
 20
1759.1
 30
0.0
 11
1566.881029
 21
1759.1
 31
0.0
  0
LINE
  5
3A8
102
{ACAD_REACTORS
330
5A4
102
}
330
1F
100
AcDbEntity
  8
LC-002-002-----0
 62
     7
370
    25
100
AcDbLine
 10
1568.785823
 20
1755.6
 30
0.0
 11
1513.376236
 21
1755.6
 31
0.0
  0
LINE
  5
3A9
102
{ACAD_REACTORS
330
5A4
102
}
330
1F
100
AcDbEntity
  8
LC-002-002-----0
 62
     7
370
    25
100
AcDbLine
 10
1568.035822
 20
1758.850001
 30
0.0
 11
1568.785822
 21
1758.100001
 31
0.0
  0
ARC
  5
3AA
102
{ACAD_REACTORS
330
5A4
102
}
330
1F
100
AcDbEntity
  8
LC-002-002-----0
 62
     7
370
    25
100
AcDbCircle
 10
1564.881029
 20
1772.6
 30
0.0
 40
2.0
100
AcDbArc
 50
0.0
 51
90.0
  0
ARC
  5
3AB
102
{ACAD_REACTORS
330
5A4
102
}
330
1F
100
AcDbEntity
  8
LC-002-002-----0
 62
     7
370
    25
100
AcDbCircle
 10
1517.281029
 20
1772.6
 30
0.0
 40
2.0
100
AcDbArc
 50
90.0
 51
180.0
  0
LINE
  5
3AC
102
{ACAD_REACTORS
330
5A4
102
}
330
1F
100
AcDbEntity
  8
LC-002-002-----0
 62
     7
370
    25
100
AcDbLine
 10
1564.293416
 20
1759.1
 30
0.0
 11
1564.293416
 21
1772.6
 31
0.0
  0
INSERT
  5
3BC
102
{ACAD_REACTORS
330
5A4
102
}
330
1F
100
AcDbEntity
  8
LC-002-002-----0
 62
     7
370
    25
100
AcDbBlockReference
  2
POLY8
 10
0.0
 20
0.0
 30
0.0
  0
LINE
  5
3BD
102
{ACAD_REACTORS
330
5A4
102
}
330
1F
100
AcDbEntity
  8
LC-002-002-----0
 62
     7
370
    25
100
AcDbLine
 10
1541.079577
 20
1759.1
 30
0.0
 11
1541.079577
 21
1772.6
 31
0.0
  0
INSERT
  5
3CD
102
{ACAD_REACTORS
330
5A4
102
}
330
1F
100
AcDbEntity
  8
LC-002-002-----0
 62
     7
370
    25
100
AcDbBlockReference
  2
POLY9
 10
0.0
 20
0.0
 30
0.0
  0
LINE
  5
3CE
102
{ACAD_REACTORS
330
5A4
102
}
330
1F
100
AcDbEntity
  8
LC-002-002-----0
 62
     7
370
    25
100
AcDbLine
 10
1517.868535
 20
1772.6
 30
0.0
 11
1517.868535
 21
1759.1
 31
0.0
  0
INSERT
  5
3DE
102
{ACAD_REACTORS
330
5A4
102
}
330
1F
100
AcDbEntity
  8
LC-002-002-----0
 62
     7
370
    25
100
AcDbBlockReference
  2
POLY10
 10
0.0
 20
0.0
 30
0.0
  0
ARC
  5
3DF
102
{ACAD_REACTORS
330
5A3
102
}
330
1F
100
AcDbEntity
  8
LC-002-002-----0
 62
     7
370
    25
100
AcDbCircle
 10
1541.081029
 20
1830.6
 30
0.0
 40
27.70479324130114
100
AcDbArc
 50
316.211302
 51
223.788698
  0
LINE
  5
3E0
102
{ACAD_REACTORS
330
5A4
102
}
330
1F
100
AcDbEntity
  8
LC-002-002-----0
 62
     7
370
    25
100
AcDbLine
 10
1519.081029
 20
1705.6
 30
0.0
 11
1519.081029
 21
1731.7
 31
0.0
  0
ARC
  5
3E1
102
{ACAD_REACTORS
330
5A4
102
}
330
1F
100
AcDbEntity
  8
LC-005-002-RND-0
 62
     7
370
    25
100
AcDbCircle
 10
1541.081029
 20
1705.6
 30
0.0
 40
22.0
100
AcDbArc
 50
180.0
 51
270.0
  0
LINE
  5
3E2
102
{ACAD_REACTORS
330
5A4
102
}
330
1F
100
AcDbEntity
  8
LC-002-002-----0
 62
     7
370
    25
100
AcDbLine
 10
1573.040577
 20
1668.1
 30
0.0
 11
1573.040577
 21
1670.101863
 31
0.0
  0
LINE
  5
3E3
102
{ACAD_REACTORS
330
5A4
102
}
330
1F
100
AcDbEntity
  8
LC-002-002-----0
 62
     7
370
    25
100
AcDbLine
 10
1563.481029
 20
1734.053149
 30
0.0
 11
1565.20106
 21
1734.367385
 31
0.0
  0
LINE
  5
3E4
102
{ACAD_REACTORS
330
5A4
102
}
330
1F
100
AcDbEntity
  8
LC-002-002-----0
 62
     7
370
    25
100
AcDbLine
 10
1575.540577
 20
1743.1
 30
0.0
 11
1573.040577
 21
1743.1
 31
0.0
  0
LINE
  5
3E5
102
{ACAD_REACTORS
330
5A4
102
}
330
1F
100
AcDbEntity
  8
LC-002-002-----0
 62
     7
370
    25
100
AcDbLine
 10
1572.337332
 20
1741.098137
 30
0.0
 11
1573.040577
 21
1741.098137
 31
0.0
  0
LINE
  5
3E6
102
{ACAD_REACTORS
330
5A4
102
}
330
1F
100
AcDbEntity
  8
LC-002-002-----0
 62
     7
370
    25
100
AcDbLine
 10
1541.081029
 20
1683.6
 30
0.0
 11
1554.772214
 21
1683.6
 31
0.0
  0
LINE
  5
3E7
102
{ACAD_REACTORS
330
5A4
102
}
330
1F
100
AcDbEntity
  8
LC-002-002-----0
 62
     7
370
    25
100
AcDbLine
 10
1572.337332
 20
1670.101863
 30
0.0
 11
1573.040577
 21
1670.101863
 31
0.0
  0
LINE
  5
3E8
102
{ACAD_REACTORS
330
5A4
102
}
330
1F
100
AcDbEntity
  8
LC-002-002-----0
 62
     7
370
    25
100
AcDbLine
 10
1575.540577
 20
1668.1
 30
0.0
 11
1573.040577
 21
1668.1
 31
0.0
  0
LINE
  5
3E9
102
{ACAD_REACTORS
330
5A4
102
}
330
1F
100
AcDbEntity
  8
LC-002-002-----0
 62
     7
370
    25
100
AcDbLine
 10
1562.582196
 20
1677.311061
 30
0.0
 11
1565.20106
 21
1676.832615
 31
0.0
  0
LINE
  5
3EA
102
{ACAD_REACTORS
330
5A4
102
}
330
1F
100
AcDbEntity
  8
LC-002-002-----0
 62
     7
370
    25
100
AcDbLine
 10
1518.681057
 20
1732.099973
 30
0.0
 11
1519.081137
 21
1731.699892
 31
0.0
  0
ARC
  5
3EB
102
{ACAD_REACTORS
330
5A4
102
}
330
1F
100
AcDbEntity
  8
LC-002-002-----0
 62
     7
370
    25
100
AcDbCircle
 10
1563.750387
 20
1683.705225
 30
0.0
 40
6.500000000000005
100
AcDbArc
 50
199.07704
 51
259.645823
  0
ARC
  5
3EC
102
{ACAD_REACTORS
330
5A4
102
}
330
1F
100
AcDbEntity
  8
LC-002-002-----0
 62
     7
370
    25
100
AcDbCircle
 10
1554.772214
 20
1680.6
 30
0.0
 40
3.000000000000295
100
AcDbArc
 50
19.055448
 51
90.0
  0
ARC
  5
3ED
102
{ACAD_REACTORS
330
5A4
102
}
330
1F
100
AcDbEntity
  8
LC-002-002-----0
 62
     7
370
    25
100
AcDbCircle
 10
1572.337332
 20
1672.101863
 30
0.0
 40
2.000000000000076
100
AcDbArc
 50
244.152631
 51
270.0
  0
ARC
  5
3EE
102
{ACAD_REACTORS
330
5A4
102
}
330
1F
100
AcDbEntity
  8
LC-002-002-----0
 62
     7
370
    25
100
AcDbCircle
 10
1572.337332
 20
1739.098137
 30
0.0
 40
2.0
100
AcDbArc
 50
90.0
 51
115.847369
  0
ARC
  5
3EF
102
{ACAD_REACTORS
330
5A4
102
}
330
1F
100
AcDbEntity
  8
LC-002-002-----0
 62
     7
370
    25
100
AcDbCircle
 10
1574.081029
 20
1675.701796
 30
0.0
 40
5.999999999999973
100
AcDbArc
 50
196.283517
 51
244.155028
  0
ARC
  5
3F0
102
{ACAD_REACTORS
330
5A4
102
}
330
1F
100
AcDbEntity
  8
LC-002-002-----0
 62
     7
370
    25
100
AcDbCircle
 10
1574.081029
 20
1735.498204
 30
0.0
 40
6.000000000000001
100
AcDbArc
 50
115.844972
 51
163.716483
  0
ARC
  5
3F1
102
{ACAD_REACTORS
330
5A4
102
}
330
1F
100
AcDbEntity
  8
LC-002-002-----0
 62
     7
370
    25
100
AcDbCircle
 10
1564.482214
 20
1672.897737
 30
0.0
 40
4.000000000000152
100
AcDbArc
 50
16.281751
 51
79.647048
  0
ARC
  5
3F2
102
{ACAD_REACTORS
330
5A4
102
}
330
1F
100
AcDbEntity
  8
LC-002-002-----0
 62
     7
370
    25
100
AcDbCircle
 10
1564.482214
 20
1738.302263
 30
0.0
 40
4.00000000000002
100
AcDbArc
 50
280.352952
 51
343.718249
  0
LINE
  5
3F3
102
{ACAD_REACTORS
330
5A4
102
}
330
1F
100
AcDbEntity
  8
LC-002-002-----0
 62
     7
370
    25
100
AcDbLine
 10
1615.683258
 20
1760.6
 30
0.0
 11
1615.683258
 21
1650.6
 31
0.0
  0
LINE
  5
3F4
102
{ACAD_REACTORS
330
5A4
102
}
330
1F
100
AcDbEntity
  8
LC-002-002-----0
 62
     7
370
    25
100
AcDbLine
 10
1611.683258
 20
1650.6
 30
0.0
 11
1615.683258
 21
1650.6
 31
0.0
  0
LINE
  5
3F5
102
{ACAD_REACTORS
330
5A4
102
}
330
1F
100
AcDbEntity
  8
LC-002-002-----0
 62
     7
370
    25
100
AcDbLine
 10
1575.540577
 20
1666.095036
 30
0.0
 11
1575.540577
 21
1668.1
 31
0.0
  0
LINE
  5
3F6
102
{ACAD_REACTORS
330
5A4
102
}
330
1F
100
AcDbEntity
  8
LC-002-002-----0
 62
     7
370
    25
100
AcDbLine
 10
1579.870351
 20
1662.85061
 30
0.0
 11
1580.8807
 21
1661.100635
 31
0.0
  0
LINE
  5
3F7
102
{ACAD_REACTORS
330
5A4
102
}
330
1F
100
AcDbEntity
  8
LC-002-002-----0
 62
     7
370
    25
100
AcDbLine
 10
1586.077219
 20
1658.1
 30
0.0
 11
1601.540577
 21
1658.1
 31
0.0
  0
LINE
  5
3F8
102
{ACAD_REACTORS
330
5A4
102
}
330
1F
100
AcDbEntity
  8
LC-002-002-----0
 62
     7
370
    25
100
AcDbLine
 10
1611.223035
 20
1650.6
 30
0.0
 11
1611.683258
 21
1650.6
 31
0.0
  0
ARC
  5
3F9
102
{ACAD_REACTORS
330
5A4
102
}
330
1F
100
AcDbEntity
  8
LC-002-002-----0
 62
     7
370
    25
100
AcDbCircle
 10
1601.540577
 20
1654.1
 30
0.0
 40
3.999999999999755
100
AcDbArc
 50
14.492147
 51
90.0
  0
ARC
  5
3FA
102
{ACAD_REACTORS
330
5A4
102
}
330
1F
100
AcDbEntity
  8
LC-002-002-----0
 62
     7
370
    25
100
AcDbCircle
 10
1611.223035
 20
1656.6
 30
0.0
 40
5.999999999999878
100
AcDbArc
 50
194.469452
 51
270.0
  0
ARC
  5
3FB
102
{ACAD_REACTORS
330
5A4
102
}
330
1F
100
AcDbEntity
  8
LC-002-002-----0
 62
     7
370
    25
100
AcDbCircle
 10
1586.077219
 20
1664.1
 30
0.0
 40
6.000000000000091
100
AcDbArc
 50
209.988476
 51
270.0
  0
ARC
  5
3FC
102
{ACAD_REACTORS
330
5A4
102
}
330
1F
100
AcDbEntity
  8
LC-002-002-----0
 62
     7
370
    25
100
AcDbCircle
 10
1575.540577
 20
1660.35
 30
0.0
 40
4.999999999999792
100
AcDbArc
 50
30.016153
 51
82.072225
  0
ARC
  5
3FD
102
{ACAD_REACTORS
330
5A4
102
}
330
1F
100
AcDbEntity
  8
LC-002-002-----0
 62
     7
370
    25
100
AcDbCircle
 10
1576.340577
 20
1666.094563
 30
0.0
 40
0.7999999999997272
100
AcDbArc
 50
180.0
 51
262.062606
  0
LINE
  5
3FE
102
{ACAD_REACTORS
330
5A4
102
}
330
1F
100
AcDbEntity
  8
LC-002-002-----0
 62
     7
370
    25
100
AcDbLine
 10
1611.683258
 20
1760.6
 30
0.0
 11
1615.683258
 21
1760.6
 31
0.0
  0
LINE
  5
3FF
102
{ACAD_REACTORS
330
5A4
102
}
330
1F
100
AcDbEntity
  8
LC-002-002-----0
 62
     7
370
    25
100
AcDbLine
 10
1579.870351
 20
1748.34939
 30
0.0
 11
1580.8807
 21
1750.099365
 31
0.0
  0
LINE
  5
400
102
{ACAD_REACTORS
330
5A4
102
}
330
1F
100
AcDbEntity
  8
LC-002-002-----0
 62
     7
370
    25
100
AcDbLine
 10
1586.077219
 20
1753.1
 30
0.0
 11
1601.540577
 21
1753.1
 31
0.0
  0
LINE
  5
401
102
{ACAD_REACTORS
330
5A4
102
}
330
1F
100
AcDbEntity
  8
LC-002-002-----0
 62
     7
370
    25
100
AcDbLine
 10
1611.223035
 20
1760.6
 30
0.0
 11
1611.683258
 21
1760.6
 31
0.0
  0
ARC
  5
402
102
{ACAD_REACTORS
330
5A4
102
}
330
1F
100
AcDbEntity
  8
LC-002-002-----0
 62
     7
370
    25
100
AcDbCircle
 10
1601.540577
 20
1757.1
 30
0.0
 40
4.0
100
AcDbArc
 50
270.0
 51
345.507853
  0
ARC
  5
403
102
{ACAD_REACTORS
330
5A4
102
}
330
1F
100
AcDbEntity
  8
LC-002-002-----0
 62
     7
370
    25
100
AcDbCircle
 10
1611.223035
 20
1754.6
 30
0.0
 40
6.0
100
AcDbArc
 50
90.0
 51
165.530548
  0
ARC
  5
404
102
{ACAD_REACTORS
330
5A4
102
}
330
1F
100
AcDbEntity
  8
LC-002-002-----0
 62
     7
370
    25
100
AcDbCircle
 10
1586.077219
 20
1747.1
 30
0.0
 40
6.0
100
AcDbArc
 50
90.0
 51
150.011524
  0
ARC
  5
405
102
{ACAD_REACTORS
330
5A4
102
}
330
1F
100
AcDbEntity
  8
LC-002-002-----0
 62
     7
370
    25
100
AcDbCircle
 10
1575.540577
 20
1750.85
 30
0.0
 40
5.000000000000194
100
AcDbArc
 50
277.927775
 51
329.983847
  0
ARC
  5
406
102
{ACAD_REACTORS
330
5A4
102
}
330
1F
100
AcDbEntity
  8
LC-002-002-----0
 62
     7
370
    25
100
AcDbCircle
 10
1576.340577
 20
1745.105437
 30
0.0
 40
0.7999999999999126
100
AcDbArc
 50
97.937394
 51
180.0
  0
LINE
  5
407
102
{ACAD_REACTORS
330
5A4
102
}
330
1F
100
AcDbEntity
  8
LC-002-002-----0
 62
     7
370
    25
100
AcDbLine
 10
1611.683258
 20
1650.6
 30
0.0
 11
1611.683258
 21
1760.6
 31
0.0
  0
LINE
  5
408
102
{ACAD_REACTORS
330
5A5
102
}
330
1F
100
AcDbEntity
  8
LC-002-002-----0
 62
     7
370
    25
100
AcDbLine
 10
1563.081029
 20
1927.6
 30
0.0
 11
1563.481029
 21
1927.6
 31
0.0
  0
LINE
  5
409
102
{ACAD_REACTORS
330
5A4
102
}
330
1F
100
AcDbEntity
  8
LC-002-002-----0
 62
     7
370
    25
100
AcDbLine
 10
1515.281029
 20
1759.1
 30
0.0
 11
1514.126254
 21
1759.1
 31
0.0
  0
LINE
  5
40A
102
{ACAD_REACTORS
330
5A4
102
}
330
1F
100
AcDbEntity
  8
LC-002-002-----0
 62
     7
370
    25
100
AcDbLine
 10
1575.540577
 20
1743.1
 30
0.0
 11
1575.540577
 21
1745.105437
 31
0.0
  0
LINE
  5
40B
102
{ACAD_REACTORS
330
5A4
102
}
330
1F
100
AcDbEntity
  8
LC-002-002-----0
 62
     7
370
    25
100
AcDbLine
 10
1573.040577
 20
1741.098137
 30
0.0
 11
1573.040577
 21
1743.1
 31
0.0
  0
LINE
  5
40C
102
{ACAD_REACTORS
330
59E
102
}
330
1F
100
AcDbEntity
  8
LC-002-002-----0
 62
     7
370
    50
100
AcDbLine
 10
719.52937
 20
2322.905131
 30
0.0
 11
736.25523
 21
2322.905131
 31
0.0
  0
CIRCLE
  5
40D
102
{ACAD_REACTORS
330
59B
102
}
330
1F
100
AcDbEntity
  8
LC-002-002-----0
  6
DASHED
 62
     7
370
    25
100
AcDbCircle
 10
975.12937
 20
1870.0
 30
0.0
 40
17.5
  0
CIRCLE
  5
40E
102
{ACAD_REACTORS
330
59B
102
}
330
1F
100
AcDbEntity
  8
LC-002-002-----0
  6
DASHED
 62
     7
370
    25
100
AcDbCircle
 10
1076.72937
 20
1870.0
 30
0.0
 40
17.5
  0
CIRCLE
  5
40F
102
{ACAD_REACTORS
330
59B
102
}
330
1F
100
AcDbEntity
  8
LC-002-002-----0
  6
DASHED
 62
     7
370
    25
100
AcDbCircle
 10
771.92937
 20
1870.0
 30
0.0
 40
17.5
  0
LINE
  5
410
102
{ACAD_REACTORS
330
59B
102
}
330
1F
100
AcDbEntity
  8
LC-004-006-MLN-0
 62
     7
370
    25
100
AcDbLine
 10
995.62937
 20
1870.0
 30
0.0
 11
954.62937
 21
1870.0
 31
0.0
  0
LINE
  5
411
102
{ACAD_REACTORS
330
59B
102
}
330
1F
100
AcDbEntity
  8
LC-004-006-MLN-0
 62
     7
370
    25
100
AcDbLine
 10
894.02937
 20
1870.0
 30
0.0
 11
853.02937
 21
1870.0
 31
0.0
  0
LINE
  5
412
102
{ACAD_REACTORS
330
59B
102
}
330
1F
100
AcDbEntity
  8
LC-004-006-MLN-0
 62
     7
370
    25
100
AcDbLine
 10
792.42937
 20
1870.0
 30
0.0
 11
751.42937
 21
1870.0
 31
0.0
  0
ARC
  5
413
102
{ACAD_REACTORS
330
5A0
102
}
330
1F
100
AcDbEntity
  8
LC-005-002-RND-0
 62
     7
370
    50
100
AcDbCircle
 10
358.709719
 20
1033.30807
 30
0.0
 40
5.0
100
AcDbArc
 50
90.0
 51
180.0
  0
ARC
  5
414
102
{ACAD_REACTORS
330
5A0
102
}
330
1F
100
AcDbEntity
  8
LC-005-002-RND-0
 62
     7
370
    50
100
AcDbCircle
 10
358.709719
 20
773.90807
 30
0.0
 40
5.0
100
AcDbArc
 50
180.0
 51
270.0
  0
ARC
  5
415
102
{ACAD_REACTORS
330
5A0
102
}
330
1F
100
AcDbEntity
  8
LC-005-002-RND-0
 62
     7
370
    50
100
AcDbCircle
 10
757.809719
 20
773.90807
 30
0.0
 40
5.0
100
AcDbArc
 50
270.0
 51
0.0
  0
ARC
  5
416
102
{ACAD_REACTORS
330
5A0
102
}
330
1F
100
AcDbEntity
  8
LC-005-002-RND-0
 62
     7
370
    50
100
AcDbCircle
 10
757.809719
 20
1033.30807
 30
0.0
 40
5.0
100
AcDbArc
 50
0.0
 51
90.0
  0
LINE
  5
417
102
{ACAD_REACTORS
330
5A0
102
}
330
1F
100
AcDbEntity
  8
LC-002-002-----0
 62
     7
370
    50
100
AcDbLine
 10
757.809719
 20
1038.30807
 30
0.0
 11
358.709719
 21
1038.30807
 31
0.0
  0
LINE
  5
418
102
{ACAD_REACTORS
330
5A0
102
}
330
1F
100
AcDbEntity
  8
LC-002-002-----0
 62
     7
370
    50
100
AcDbLine
 10
353.709719
 20
1033.30807
 30
0.0
 11
353.709719
 21
773.90807
 31
0.0
  0
LINE
  5
419
102
{ACAD_REACTORS
330
5A0
102
}
330
1F
100
AcDbEntity
  8
LC-002-002-----0
 62
     7
370
    50
100
AcDbLine
 10
358.709719
 20
768.90807
 30
0.0
 11
757.809719
 21
768.90807
 31
0.0
  0
LINE
  5
41A
102
{ACAD_REACTORS
330
5A0
102
}
330
1F
100
AcDbEntity
  8
LC-002-002-----0
 62
     7
370
    50
100
AcDbLine
 10
762.809719
 20
773.90807
 30
0.0
 11
762.809719
 21
1033.30807
 31
0.0
  0
TEXT
  5
41C
330
1F
100
AcDbEntity
  8
LC-008-004-----0
 62
     7
370
    35
100
AcDbText
 10
368.89268
 20
1111.853113
 30
0.0
 40
35.0
  1
cutout drop in  1:20
 41
0.8
  7
LCTX0-400-0-0pDIN-Schrift
100
AcDbText
  0
INSERT
  5
439
330
1F
100
AcDbEntity
  8
LC-011-003-----0
 62
     7
370
    25
100
AcDbBlockReference
  2
LCDIM1
 10
0.0
 20
0.0
 30
0.0
  0
INSERT
  5
453
330
1F
100
AcDbEntity
  8
LC-011-003-----0
 62
     7
370
    25
100
AcDbBlockReference
  2
LCDIM2
 10
0.0
 20
0.0
 30
0.0
  0
INSERT
  5
46D
330
1F
100
AcDbEntity
  8
LC-011-003-----0
 62
     7
370
    25
100
AcDbBlockReference
  2
LCDIM3
 10
0.0
 20
0.0
 30
0.0
  0
INSERT
  5
487
330
1F
100
AcDbEntity
  8
LC-011-003-----0
 62
     7
370
    25
100
AcDbBlockReference
  2
LCDIM4
 10
0.0
 20
0.0
 30
0.0
  0
INSERT
  5
4A1
330
1F
100
AcDbEntity
  8
LC-011-003-----0
 62
     7
370
    25
100
AcDbBlockReference
  2
LCDIM5
 10
0.0
 20
0.0
 30
0.0
  0
INSERT
  5
4BB
330
1F
100
AcDbEntity
  8
LC-011-003-----0
 62
     7
370
    25
100
AcDbBlockReference
  2
LCDIM6
 10
0.0
 20
0.0
 30
0.0
  0
INSERT
  5
4D5
330
1F
100
AcDbEntity
  8
LC-011-003-----0
 62
     7
370
    25
100
AcDbBlockReference
  2
LCDIM7
 10
0.0
 20
0.0
 30
0.0
  0
INSERT
  5
4EF
330
1F
100
AcDbEntity
  8
LC-011-003-----0
 62
     7
370
    25
100
AcDbBlockReference
  2
LCDIM8
 10
0.0
 20
0.0
 30
0.0
  0
INSERT
  5
509
330
1F
100
AcDbEntity
  8
LC-011-003-----0
 62
     7
370
    25
100
AcDbBlockReference
  2
LCDIM9
 10
0.0
 20
0.0
 30
0.0
  0
INSERT
  5
523
330
1F
100
AcDbEntity
  8
LC-011-003-----0
 62
     7
370
    25
100
AcDbBlockReference
  2
LCDIM10
 10
0.0
 20
0.0
 30
0.0
  0
INSERT
  5
53D
330
1F
100
AcDbEntity
  8
LC-011-003-----0
 62
     7
370
    25
100
AcDbBlockReference
  2
LCDIM11
 10
0.0
 20
0.0
 30
0.0
  0
INSERT
  5
557
330
1F
100
AcDbEntity
  8
LC-011-003-----0
 62
     7
370
    25
100
AcDbBlockReference
  2
LCDIM12
 10
0.0
 20
0.0
 30
0.0
  0
INSERT
  5
571
330
1F
100
AcDbEntity
  8
LC-011-003-----0
 62
     7
370
    25
100
AcDbBlockReference
  2
LCDIM13
 10
0.0
 20
0.0
 30
0.0
  0
INSERT
  5
58B
330
1F
100
AcDbEntity
  8
LC-011-003-----0
 62
     7
370
    25
100
AcDbBlockReference
  2
LCDIM14
 10
0.0
 20
0.0
 30
0.0
  0
INSERT
  5
59A
330
1F
100
AcDbEntity
  8
LC-011-003-----0
 62
     7
370
    25
100
AcDbBlockReference
  2
LCDIM15
 10
0.0
 20
0.0
 30
0.0
  0
ENDSEC
  0
SECTION
  2
OBJECTS
  0
DICTIONARY
  5
C
330
0
100
AcDbDictionary
281
     1
  3
ACAD_GROUP
350
D
  3
ACAD_LAYOUT
350
1A
  3
ACAD_MLINESTYLE
350
17
  3
ACAD_PLOTSETTINGS
350
19
  3
ACAD_PLOTSTYLENAME
350
E
  0
DICTIONARY
  5
D
102
{ACAD_REACTORS
330
C
102
}
330
C
100
AcDbDictionary
281
     1
  3
LCGROUP11
350
59B
  3
LCGROUP315
350
59D
  3
LCGROUP316
350
59C
  3
LCGROUP417
350
5A1
  3
LCGROUP471
350
5A2
  3
LCGROUP494
350
5A4
  3
LCGROUP495
350
5A3
  3
LCGROUP496
350
5A5
  3
LCGROUP658
350
5A0
  3
LCGROUP73
350
59E
  3
LCGROUP94
350
59F
  0
DICTIONARY
  5
1A
102
{ACAD_REACTORS
330
C
102
}
330
C
100
AcDbDictionary
281
     1
  3
Layout1
350
1E
  3
Layout2
350
26
  3
Model
350
22
  0
DICTIONARY
  5
17
102
{ACAD_REACTORS
330
C
102
}
330
C
100
AcDbDictionary
281
     1
  3
Standard
350
18
  0
DICTIONARY
  5
19
102
{ACAD_REACTORS
330
C
102
}
330
C
100
AcDbDictionary
281
     1
  0
ACDBDICTIONARYWDFLT
  5
E
102
{ACAD_REACTORS
330
C
102
}
330
C
100
AcDbDictionary
281
     1
  3
Normal
350
F
100
AcDbDictionaryWithDefault
340
F
  0
GROUP
  5
59B
102
{ACAD_REACTORS
330
D
102
}
330
D
100
AcDbGroup
300
GRP11
 70
     1
 71
     1
340
104
340
105
340
106
340
107
340
108
340
109
340
10A
340
10B
340
10C
340
10D
340
10E
340
10F
340
110
340
111
340
112
340
113
340
114
340
115
340
116
340
117
340
11A
340
11B
340
11C
340
11D
340
11E
340
11F
340
121
340
122
340
123
340
124
340
125
340
126
340
127
340
128
340
129
340
12A
340
12B
340
12C
340
12D
340
12E
340
12F
340
130
340
131
340
132
340
133
340
134
340
135
340
136
340
137
340
138
340
139
340
13A
340
13B
340
13C
340
13D
340
13E
340
13F
340
140
340
141
340
142
340
143
340
40D
340
40E
340
40F
340
410
340
411
340
412
  0
GROUP
  5
59D
102
{ACAD_REACTORS
330
D
102
}
330
D
100
AcDbGroup
300
GRP315
 70
     1
 71
     1
340
23F
340
240
340
241
340
242
340
243
340
244
340
245
340
246
340
247
340
248
340
249
340
24A
340
24B
340
24C
340
24D
340
24E
340
24F
340
250
340
251
340
252
340
253
340
254
340
255
340
256
340
257
340
258
340
259
340
25A
340
25B
340
25C
340
25D
340
25E
340
25F
340
260
340
261
340
262
340
263
340
264
340
265
340
273
340
274
340
2A8
340
2A9
340
2AA
340
2AB
340
2AC
340
2AD
340
2AE
340
2AF
340
2B0
340
2B1
340
2B2
340
2B3
340
2B4
340
2B5
340
2B6
340
2B7
340
2B8
340
2B9
340
2BA
340
2BB
340
2BC
340
2BD
340
2BE
340
2BF
340
2C0
340
2C1
340
2C2
340
2C3
340
2C4
340
2C5
340
2C6
340
2C7
340
2C8
340
2C9
340
2F8
340
2F9
340
2FA
340
2FB
340
2FC
340
2FD
340
2FE
340
2FF
340
300
  0
GROUP
  5
59C
102
{ACAD_REACTORS
330
D
102
}
330
D
100
AcDbGroup
300
GRP316-LCMaster-LCGROUP315
 70
     1
 71
     1
340
231
340
232
340
233
340
234
340
266
340
267
340
268
340
269
340
26A
340
26B
340
26C
340
26D
340
26E
340
26F
340
270
340
271
340
272
340
275
340
285
340
295
340
296
340
2A6
340
2A7
340
2CA
340
2CB
340
2F5
  0
GROUP
  5
5A1
102
{ACAD_REACTORS
330
D
102
}
330
D
100
AcDbGroup
300
GRP417-LCMaster-LCGROUP316
 70
     1
 71
     1
340
2CC
340
2CD
340
2CE
340
2CF
340
2D0
340
2D1
340
2D2
340
2D3
340
2D4
340
2D5
340
2D6
340
2D7
340
2D8
340
2D9
340
2DA
340
2DB
340
2DC
340
2DD
340
2DE
340
2DF
340
2E0
340
2E1
340
2E2
340
2E3
340
2E4
340
2E5
340
2E6
340
2E7
340
2E8
340
2E9
340
2EA
340
2EB
340
2EC
340
2ED
340
2EE
340
2EF
340
2F0
340
2F1
340
2F2
340
2F3
340
2F4
340
2F6
340
2F7
  0
GROUP
  5
5A2
102
{ACAD_REACTORS
330
D
102
}
330
D
100
AcDbGroup
300
GRP471
 70
     1
 71
     1
340
301
340
302
340
303
340
304
340
305
340
306
340
307
340
308
340
309
340
30A
340
30B
340
30C
340
30D
340
30E
340
30F
340
31A
340
31B
340
31C
340
31D
340
31E
340
31F
  0
GROUP
  5
5A4
102
{ACAD_REACTORS
330
D
102
}
330
D
100
AcDbGroup
300
GRP494
 70
     1
 71
     1
340
39A
340
39D
340
39F
340
3A0
340
3A1
340
3A2
340
3A3
340
3A4
340
3A5
340
3A6
340
3A7
340
3A8
340
3A9
340
3AA
340
3AB
340
3AC
340
3BC
340
3BD
340
3CD
340
3CE
340
3DE
340
3E0
340
3E1
340
3E2
340
3E3
340
3E4
340
3E5
340
3E6
340
3E7
340
3E8
340
3E9
340
3EA
340
3EB
340
3EC
340
3ED
340
3EE
340
3EF
340
3F0
340
3F1
340
3F2
340
3F3
340
3F4
340
3F5
340
3F6
340
3F7
340
3F8
340
3F9
340
3FA
340
3FB
340
3FC
340
3FD
340
3FE
340
3FF
340
400
340
401
340
402
340
403
340
404
340
405
340
406
340
407
340
409
340
40A
340
40B
  0
GROUP
  5
5A3
102
{ACAD_REACTORS
330
D
102
}
330
D
100
AcDbGroup
300
GRP495-LCMaster-LCGROUP494
 70
     1
 71
     1
340
39B
340
39C
340
39E
340
3DF
  0
GROUP
  5
5A5
102
{ACAD_REACTORS
330
D
102
}
330
D
100
AcDbGroup
300
GRP2961-LCMaster-LCGROUP495
 70
     1
 71
     1
340
320
340
321
340
322
340
323
340
324
340
325
340
326
340
327
340
328
340
329
340
32A
340
32B
340
32C
340
32D
340
32E
340
32F
340
330
340
331
340
332
340
333
340
334
340
335
340
336
340
337
340
338
340
339
340
33A
340
33B
340
33C
340
33D
340
33E
340
33F
340
340
340
341
340
342
340
343
340
344
340
345
340
346
340
347
340
348
340
349
340
34A
340
34B
340
34C
340
34D
340
34E
340
34F
340
350
340
351
340
352
340
353
340
354
340
355
340
356
340
357
340
358
340
359
340
35A
340
35B
340
35C
340
35D
340
35E
340
35F
340
360
340
361
340
362
340
363
340
364
340
365
340
366
340
367
340
377
340
378
340
388
340
389
340
399
340
408
  0
GROUP
  5
5A0
102
{ACAD_REACTORS
330
D
102
}
330
D
100
AcDbGroup
300
Äquidistante
 70
     1
 71
     1
340
413
340
414
340
415
340
416
340
417
340
418
340
419
340
41A
  0
GROUP
  5
59E
102
{ACAD_REACTORS
330
D
102
}
330
D
100
AcDbGroup
300
GRP73
 70
     1
 71
     1
340
144
340
145
340
146
340
147
340
148
340
149
340
14A
340
14B
340
14C
340
14D
340
14E
340
14F
340
150
340
151
340
152
340
153
340
154
340
155
340
156
340
157
340
15A
340
15B
340
15C
340
15D
340
15E
340
15F
340
160
340
161
340
162
340
163
340
164
340
165
340
166
340
167
340
168
340
169
340
16A
340
16B
340
16C
340
16D
340
16E
340
16F
340
170
340
171
340
172
340
173
340
174
340
175
340
176
340
177
340
178
340
179
340
17A
340
17B
340
17C
340
17D
340
17E
340
17F
340
180
340
181
340
182
340
183
340
184
340
185
340
186
340
187
340
188
340
189
340
18A
340
18B
340
18C
340
18D
340
18E
340
18F
340
190
340
191
340
192
340
193
340
194
340
195
340
196
340
197
340
198
340
199
340
19A
340
19B
340
19C
340
19D
340
19E
340
19F
340
1A0
340
1A1
340
1A2
340
1A3
340
1A4
340
1A5
340
1A6
340
1A7
340
1A8
340
1A9
340
1AA
340
1AB
340
1AC
340
1AD
340
1AE
340
1AF
340
1B0
340
1B1
340
1B2
340
1B3
340
1B4
340
1B5
340
1B6
340
1B7
340
1B8
340
229
340
22A
340
22B
340
22D
340
22E
340
22F
340
230
340
40C
  0
GROUP
  5
59F
102
{ACAD_REACTORS
330
D
102
}
330
D
100
AcDbGroup
300
GRP94
 70
     1
 71
     1
340
158
340
159
340
1B9
340
1BA
340
1BB
340
1BC
340
1BD
340
1BE
340
1BF
340
1C0
340
1C1
340
1C2
340
1C3
340
1C4
340
1C5
340
1C6
340
1C7
340
1C8
340
1C9
340
1CA
340
1CB
340
1CC
340
1CD
340
1CE
340
1CF
340
1D0
340
1D1
340
1D2
340
1D3
340
1D4
340
1D5
340
1D6
340
1D7
340
1D8
340
1D9
340
1DA
340
1DB
340
1DC
340
1DD
340
1DE
340
1DF
340
1E0
340
1E1
340
1E2
340
1E3
340
1E4
340
1E5
340
1E6
340
1E7
340
1E8
340
1E9
340
1EA
340
1EB
340
1EC
340
1ED
340
1EE
340
1EF
340
1F0
340
1F1
340
1F2
340
1F3
340
1F4
340
1F5
340
1F6
340
1F7
340
1F8
340
1F9
340
1FA
340
1FB
340
1FC
340
1FD
340
1FE
340
1FF
340
200
340
201
340
202
340
203
340
204
340
205
340
206
340
207
340
208
340
209
340
20A
340
20B
340
20C
340
20D
340
20E
340
20F
340
210
340
211
340
212
340
213
340
214
340
215
340
216
340
217
340
218
340
219
340
21A
340
21B
340
21C
340
21D
340
21E
340
21F
340
220
340
221
340
222
340
223
340
224
340
225
340
226
340
227
340
228
  0
LAYOUT
  5
1E
102
{ACAD_REACTORS
330
1A
102
}
330
1A
100
AcDbPlotSettings
  1

  2

  4

  6

 40
0.0
 41
0.0
 42
0.0
 43
0.0
 44
0.0
 45
0.0
 46
0.0
 47
0.0
 48
0.0
 49
0.0
140
0.0
141
0.0
142
1.0
143
1.0
 70
   688
 72
     0
 73
     0
 74
     5
  7

 75
    16
147
1.0
148
0.0
149
0.0
100
AcDbLayout
  1
Layout1
 70
     1
 71
     1
 10
0.0
 20
0.0
 11
2100.0
 21
2970.0
 12
0.0
 22
0.0
 32
0.0
 14
0.0
 24
0.0
 34
0.0
 15
2100.0
 25
2970.0
 35
0.0
146
0.0
 13
0.0
 23
0.0
 33
0.0
 16
1.0
 26
0.0
 36
0.0
 17
0.0
 27
1.0
 37
0.0
 76
     0
330
1B
  0
LAYOUT
  5
26
102
{ACAD_REACTORS
330
1A
102
}
330
1A
100
AcDbPlotSettings
  1

  2

  4

  6

 40
0.0
 41
0.0
 42
0.0
 43
0.0
 44
0.0
 45
0.0
 46
0.0
 47
0.0
 48
0.0
 49
0.0
140
0.0
141
0.0
142
1.0
143
1.0
 70
   688
 72
     0
 73
     0
 74
     5
  7

 75
    16
147
1.0
148
0.0
149
0.0
100
AcDbLayout
  1
Layout2
 70
     1
 71
     2
 10
0.0
 20
0.0
 11
0.0
 21
0.0
 12
0.0
 22
0.0
 32
0.0
 14
0.0
 24
0.0
 34
0.0
 15
0.0
 25
0.0
 35
0.0
146
0.0
 13
0.0
 23
0.0
 33
0.0
 16
1.0
 26
0.0
 36
0.0
 17
0.0
 27
1.0
 37
0.0
 76
     0
330
23
  0
LAYOUT
  5
22
102
{ACAD_REACTORS
330
1A
102
}
330
1A
100
AcDbPlotSettings
  1

  2

  4

  6

 40
0.0
 41
0.0
 42
0.0
 43
0.0
 44
0.0
 45
0.0
 46
0.0
 47
0.0
 48
0.0
 49
0.0
140
0.0
141
0.0
142
1.0
143
1.0
 70
  1776
 72
     0
 73
     0
 74
     0
  7

 75
     0
147
1.0
148
0.0
149
0.0
100
AcDbLayout
  1
Model
 70
     1
 71
     0
 10
0.0
 20
0.0
 11
2100.0
 21
2970.0
 12
0.0
 22
0.0
 32
0.0
 14
0.0
 24
0.0
 34
0.0
 15
2100.0
 25
2970.0
 35
0.0
146
0.0
 13
0.0
 23
0.0
 33
0.0
 16
1.0
 26
0.0
 36
0.0
 17
0.0
 27
1.0
 37
0.0
 76
     0
330
1F
  0
MLINESTYLE
  5
18
102
{ACAD_REACTORS
330
17
102
}
330
17
100
AcDbMlineStyle
  2
Standard
 70
     0
  3

 62
   256
 51
90.0
 52
90.0
 71
     2
 49
0.5
 62
   256
  6
BYLAYER
 49
-0.5
 62
   256
  6
BYLAYER
  0
ACDBPLACEHOLDER
  5
F
102
{ACAD_REACTORS
330
E
102
}
330
E
  0
ENDSEC
  0
EOF
